Blink 182

Instrumental Song Tabs



More from Blink 182

Blink 182 Tabs
Blink 182 Chords
Blink 182 Bass
Blink 182 Lyrics

-------------------------------------------------------------------------------
                            INSTRUMENTAL SONG - Blink-182
-------------------------------------------------------------------------------

Email: Rahm1027@hotmail.com

A-------5-----5---5-----5-----5---5-----5-----5---5-----5-----5---5-|
E---3-3---3-3---3---5-5---5-5---5---2-2---2-2---2---0-0---0-0---0---|
                                That was the intro.  Play twice on bass fast

D-----5---5-----5---5-----5---5-----5---5-|
A-3-3---3---5-5---5---2-2---2---0-0---0---|

That was the guitar part. Starts after bass part. Play twice.

B----------4--6-|
G---5---7--4--6-|
D---5---7--2--4-|
A---3---5-------|
       That was the chorus. Let each note ring.

G-------5---5-3-2-|
D---3-3---3-------|
A-----------------|
  That is a guitar part that is played ALOT in the song. Just listen to it.

Play it kinda of slow. Thats the whole song.

-------------------------------------------------------------------------------
Get this song at amazon.com      Ebay     Ringtones Ringtones  


Learn to play: Songwriting, Piano, Harmonica, Guitar
More Blink 182 lyrics available at Muzikum

Related Blink 182 Tabs

Online Songs tabs
Untitled tabs
Adams Song (intro) tabs
Dammit (live) tabs
Feeling This Live tabs
Cacaphony tabs
I Wont Be Home For Christmas tabs
Time tabs
Adams Song(perfect) tabs
It's Obvious tabs
All New Songs tabs
Dude Ranch (whole Album) tabs
Anthem Pt Ii tabs
Dammit Solo tabs
Always1 tabs
B J tabs
Mutt Live tabs
Cereal tabs
Enema Of The State Album tabs
Lemmings tabs


Guitar Tabs









All tabs are property and copyright of their owners. All tabs provided for educational purposes only. Privacy Policy, DMCA