Blink 182

I Won't Be Home For Christmas Tabs



More from Blink 182

Blink 182 Tabs
Blink 182 Chords
Blink 182 Bass
Blink 182 Lyrics




*=palm mute

Intro x2
e-----------------------------------------------------------
B-----------------------------------------------------------
G-0-0-0-4-0-0-5-0-4-2-0--0-0-4-0--0-4-0--0-0-2-0-5-0-4-2-0--
D-----------------------------------------------------------
A-----------------------------------------------------------
E-----------------------------------------------------------

e-----------------------------------------------------------
B-----------------------------------------------------------
G-0-0-4-0--0-4-0--------------------------------------------
D-----------------------------------------------------------
A-----------------------------------------------------------
E-----------------------------------------------------------

Verse
G5 E5 C5 D/F#
e-----------------------------------------------------------
B-----------------------------------------------------------
G---------------------------------5-------------------------
D-5----------5-5--2----------5-5--5----------5-5--4---------
A-5---------------2---------------3-3-3-3-3-3-3-3-5-5-5-5-5-
E-3-3-3-3-3-3-3-3-0-0-0-0-0-0-0-0---------------------------
* * * * * * * * * * * * * * * * * * * * * * * * *
e-----------------------------------------------------------
B-----------------------------------------------------------
G---------play----------------------------------------------
D--4-4------2-----------------------------------------------
A-5-5-5---times---------------------------------------------
E-----------------------------------------------------------

FILL(you play the verse x2 then this, then the verse x2 again,
but leaving off the last palm mute part)
e-----------------------------------------------------------
B-888888888888----------------------------------------------
G-xxxxxxxxxxxx----------------------------------------------
D-555555555555----------------------------------------------
A-----------------------------------------------------------
E-----------------------------------------------------------

Chorus
Guitar 1 plays the fill part during the entire chorus

guitar 2
G5 D5 E5 C5
e-----------------------------------------------------------
B-----------------------------------------------------------
G---------7-7-7-7---------5-5-5-5---------------------------
D-5-5-5-5-7-7-7-7-2-2-2-2-5-5-5-5---------------------------
A-5-5-5-5-5-5-5-5-2-2-2-2-3-3-3-3---------------------------
E-3-3-3-3---------0-0-0-0-----------------------------------


Outro
G5 A5 B5 C5
e-----------------------------------------------------------
B-----------------------------------------------------------
G---------2-2-2-2-4-4-4-4-5-5-5-5---------------------------
D-5-5-5-5-2-2-2-2-4-4-4-4-5-5-5-5---------------------------
A-5-5-5-5-0-0-0-0-2-2-2-2-3-3-3-3---------------------------
E-3-3-3-3---------------------------------------------------



Get this song at amazon.com      Ebay     Ringtones Ringtones  


Learn to play: Songwriting, Piano, Harmonica, Guitar
Also available at Muzikum: Blink 182 - I Won't Be Home For Christmas lyrics

Related Blink 182 Tabs

First Date tabs
Don't Leave Me (live) tabs
Enthused tabs
Sometimes tabs
The Grandpa Song tabs
Take Off Your Pants And Jacket tabs
What\'s My Age Again tabs
Emo tabs
Shut Up Intro tabs
The Rock Show tabs
Dude Ranch tabs
Adams Song Piano tabs
13 Miles tabs
Touchdown Boy Intro-easy tabs
Heres Your Letter tabs
Go tabs
Down tabs
Shit Piss tabs
All The Small Things tabs
Voyeur tabs


Guitar Tabs









All tabs are property and copyright of their owners. All tabs provided for educational purposes only. Privacy Policy, DMCA