Blink 182

I Miss You Tabs



More from Blink 182

Blink 182 Tabs
Blink 182 Chords
Blink 182 Bass
Blink 182 Lyrics

Song: I Miss You (live at pepsi smash)

Band: Blink 182





Another Blink 182 song, Live though, the only thing different in this to the recorded version is the verse and the bridge, it sounds good. This song is really played with capoed on the 2nd fret nut its easier this way. Iím not too sure about the outro I know it looks weird but Iím sure its right, I did my best and its missing the pickslide, You should know where it is if youíve heard the song.



Rate this tab please.

Tuning: Standard (eadgbe)

Intro

e|-----------------------------------------------|

B|-----------------------------------------------|

G|-4-4/8-8-8--4-4/8-8-8--4-4-/8-8-8--4-4/8-8-8---|

D|-x-x/x-x-x--x-x/x-x-x--x-x-/x-x-x--x-x/x-x-x---| x 2

A|-2-2/6-6-6--2-2/6-6-6--2-2-/6-6-6--2-2/6-6-6---|

E|-----------------------------------------------|



Verse 1

e|-----------------------------------------------|

B|-----------------------------------------------|

G|-4-4/8-8-8--4-4/8-8-8--4-4-/8-8-8--4-4/8-8-8---|

D|-x-x/x-x-x--x-x/x-x-x--x-x-/x-x-x--x-x/x-x-x---| x 3

A|-2-2/6-6-6--2-2/6-6-6--2-2-/6-6-6--2-2/6-6-6---|

E|-----------------------------------------------|



Chorus 1

(Tom uses some effects that I donít know of, but I know the notes he plays)

e|--------|-----------|------|

B|--------|-----------|------|

G|-4-4-4~--|--8-8-8~---|-----|

D|-x-x-x~--|--x-x-x~---|-----| x 1

A|-2-2-2~--|--6-6-6~---|-----|

E|--------|-----------|------|



Verse 2

e|--------------------------------------|

B|--------------------------------------|

G|--------------------------------------|

D|-9-9-9-9--9-9-9-9--6-6-6-6--8-8-8-8---| x 4

A|-x-x-x-x--x-x-x-x--x-x-x-x--x-x-x-x---|

E|-7-7-7-7--6-6-6-6--4-4-4-4--6-6-6-6---|



Chorus 2

e|-----------------------------------------------------------------|

B|-----------------------------------------------------------------|

G|-4-4-4-4--6-6-6-6--8-8-8-8--11-11-11-11--9-9-9-9-9-9-9-9-9-9-9-9-|

D|-x-x-x-x--x-x-x-x--x-x-x-x--x--x--x--x---x-x-x-x-x-x-x-x-x-x-x-x-|

A|-2-2-2-2--4-4-4-4--6-6-6-6--9--9--9--9---7-7-7-7-7-7-7-7-7-7-7-7-|

E|-----------------------------------------------------------------|



e|------------|

B|------------|

G|-9-9-9-9----|

D|-x-x-x-x----| x 2

A|-7-7-7-7----|

E|------------|



End Chorus here

e|--------|

B|--------|

G|-9~-----|

D|-x~-----|

A|-7~-----|

E|--------|



Bridge

e|---------------------------------------------|

B|-------------------------------------11~-----|

G|---11~--------11~----------11~---------------|

D|-9------9/8-8------9------------9h11---------|

A|---------------------11-11-------------------|

E|---------------------------------------------|



e|---------------------------------------------|

B|-------------------------------------11------|

G|---11~--------11~----------11~----------11~--|

D|-9------9/8-8------9------------9h11---------|

A|---------------------11-11-------------------|

E|---------------------------------------------|



Chorus 3

e|-----------------------------------------------------------------|

B|-----------------------------------------------------------------|

G|-4-4-4-4--6-6-6-6--8-8-8-8--11-11-11-11--9-9-9-9-9-9-9-9-9-9-9-9-|

D|-x-x-x-x--x-x-x-x--x-x-x-x--x--x--x--x---x-x-x-x-x-x-x-x-x-x-x-x-|

A|-2-2-2-2--4-4-4-4--6-6-6-6--9--9--9--9---7-7-7-7-7-7-7-7-7-7-7-7-|

E|-----------------------------------------------------------------|



e|------------|

B|------------|

G|-9-9-9-9----|

D|-x-x-x-x----| x 4

A|-7-7-7-7----|

E|------------|



Outro (It gets really fast here)

e|--------------------------------------------------------------------|

B|--------------------------------------------------------------------|

G|-----------------11---9---------6-6-6-6---------8-8-8-8-8-8-8-8-8-8-|

D|-9---9---9---9--------x---8--8--x-x-x-x--9-9-9--x-x-x-x-x-x-x-x-x-x-|

A|-x---x---x---x--------7---x--x--4-4-4-4--x-x-x--6-6-6-6-6-6-6-6-6-6-|

E|-7---7---7---7------------6--6-----------7-7-7----------------------|



e|------------|

B|------------|

G|-8-8--------|

D|-x-x--------| x 2

A|-6-6--------|

E|------------|



e|-----------------------------------------------------------------|

B|-----------------------------------------------------------------|

G|-----------------------------------------------------------------|

D|-9---9---9---9---9/11---11---11---11-----11-11-11-11-11-11-11-11-|

A|-x---x---x---x---x/x----x----x----x------x--x--x--x--x--x--x--x--|

E|-7---7---7---7---7/9----9----9----9------9--9--9--9--9--9--9--9--|



e|------------------------------------------------------------------|

B|------------------------------------------------------------------|

G|------------------------------------------------------------------|

D|-/9-9-9-9-9-9-9-9/13-13-13-13-13-13-13-13-13-13-13-13-13-13-13-13-|

A|-/x-x-x-x-x-x-x-x/x--x--x--x--x--x--x--x--x--x--x--x--x--x--x--x--|

E|-/7-7-7-7-7-7-7-7/11-11-11-11-11-11-11-11-11-11-11-11-11-11-11-11-|



e|------------------------------------------|

B|------------------------------------------|

G|------------------------------------------|

D|-9---9---9---9---9/11---11---11---11------|

A|-x---x---x---x---x/x----x----x----x-------|

E|-7---7---7---7---7/9----9----9----9-------|



End song here.

e|-----------------|

B|-----------------|

G|-----------------|

D|-9---------------|

A|-x---------------|

E|-7---------------|

Get this song at amazon.com      Ebay     Ringtones Ringtones  


Learn to play: Songwriting, Piano, Harmonica, Guitar
Also available at Muzikum: Blink 182 - I miss you lyrics

Related Blink 182 Tabs

Mother's Day tabs
Fentoozler tabs
Story Of A Lonely Guy tabs
Touchdown Boy Intro tabs
Freak Scene Solo tabs
The Fallen Interlude tabs
Adam Song tabs
Just About Done tabs
Family Reunion tabs
Country Song tabs
Anthem Pt. 2 tabs
I Won't Be Home For Christmas tabs
Dysentary Gary tabs
Anthem Part Two tabs
Dysentery Gary Acoustic tabs
Adams Song (guitar Tab) tabs
Asthenia Intro tabs
Tv tabs
Don't Leave Me (live) tabs
Heres Your Letter tabs


Guitar Tabs









All tabs are property and copyright of their owners. All tabs provided for educational purposes only. Privacy Policy, DMCA

Online converter - videoconverter.com