Blink 182

I Miss You Bass Tabs



More from Blink 182

Blink 182 Tabs
Blink 182 Chords
Blink 182 Bass
Blink 182 Lyrics

Date: Sun, 23 Nov 2003 17:03:55 EST
From: Atomicough7@aol.com
Subject: b/blink_182/i_miss_you.btab

|----------------------------------------------------------------|
|----------------------------------------------------------------|
|----------------------------------------------------------------|
|67-7----46-6----24-4----46-6----67-7----46-6----24-4----46-6----|

|----------------------------------------------------------------|
|----------------------------------------------------------------|
|----------------------------------------------------------------|
|67-7----46-6----24-4----46-6----67-7----46-6----24-4----46-6----|

|----------------------------------------------------------------|
|----------------------------------------------------------------|
|----------------------------------------------------------------|
|67-7----46-6----24-4----46-6----67-7----46-6----24-4----46-6----|

|----------------------------------------------------------------|
|----------------------------------------666666668888888899999999|
|----------------666666667777777799999999------------------------|
|7777777799999999------------------------------------------------|

|----------------------------------------------------------------|
|----------------------------------------666666668888888899999999|
|----------------666666667777777799999999------------------------|
|7777777799999999------------------------------------------------|

|----------------------------------------------------------------|
|----------------------------------------------------------------|
|----------------------------------------------------------------|
|67-7----46-6----24-4----46-6----67-7----46-6----24-4----46-6----|

|----------------------------------------------------------------|
|----------------------------------------------------------------|
|----------------------------------------------------------------|
|67-7----46-6----24-4----46-6----67-7----46-6----24-4----46-6----|

|----------------------------------------------------------------|
|----------------------------------------------------------------|
|----------------------------------------------------------------|
|67-7----46-6----24-4----46-6----67-7----46-6----24-4----46-6----|

|----------------------------------------------------------------|
|----------------------------------------666666668888888899999999|
|----------------666666667777777799999999------------------------|
|7777777799999999------------------------------------------------|

|----------------------------------------------------------------|
|----------------------------------------666666668888888899999999|
|----------------666666667777777799999999------------------------|
|7777777799999999------------------------------------------------|

|----------------------------------------------------------------|
|----------------------------------------------------------------|
|----------------------------------------------------------------|
|24-4----46-6----67-7----46-6----24-4----46-6----67-7----46-6----|

|----------------------------------------------------------------|
|----------------------------------------666666668888888899999999|
|----------------666666667777777799999999------------------------|
|7777777799999999------------------------------------------------|

|----------------------------------------------------------------|
|----------------------------------------666666668888888899999999|
|----------------666666667777777799999999------------------------|
|7777777799999999------------------------------------------------|

|----------------------------------------------------------------|
|----------------------------------------666666668888888899999999|
|----------------666666667777777799999999------------------------|
|7777777799999999------------------------------------------------|

|----------------------------------------------------------------|
|----------------------------------------666666668888888899999999|
|----------------666666667777777799999999------------------------|
|7777777799999999------------------------------------------------|fade out
Get this song at amazon.com      Ebay     Ringtones Ringtones  


Learn to play: Songwriting, Piano, Harmonica, Guitar
Also available at Muzikum: Blink 182 - I miss you lyrics

Related Blink 182 Bass Tabs

Girl Next Door bass
Happy Holidays U B****** bass
Always bass
Peggy Sue Live bass
Dumpweed live bass
Shut Up bass
Wishing Well bass
Instrumental bass
Just About Done bass
What\'s My Age Again bass
Rich Lips bass
Cheshire Cat bass
Good Times bass
Ben Wah Balls bass
Toast And Bananas bass
Waggy bass
Wont Be Home For Christmas bass
The Grandpa Song bass
Adam\'s Song bass
Marlboro Man bass


Guitar Tabs









All tabs are property and copyright of their owners. All tabs provided for educational purposes only. Privacy Policy, DMCA