Blink 182

Hollywood Tabs



More from Blink 182

Blink 182 Tabs
Blink 182 Chords
Blink 182 Bass
Blink 182 Lyrics

-------------------------------------------------------------------------------
                               HOLLYWOOD - Blink-182
-------------------------------------------------------------------------------

name-wetwillie101@aol.com

e|---------------------------------------------------------------------------|
B|------4-4-4-4-4-4-4-4------------------------------------------------------|
G|------4-4-4-4-4-4-4-4----4-4-4-4-------------------------------------------|
D|------1-1-1-1-1-1-1-1----4-4-4-4-------------------------------------------|
A|-------------------------2-2-2-2-------------------------------------------|
E|---------------------------------------------------------------------------|

      she's unstopable, unpredictable
e|---------------------------------------------------------------------------|
B|---------------------------------------------------------------------------|
G|---4-4-4-4----4-4-4-4------------------------------------------------------|
D|---4-4-4-4----4-4-4-4------6-6-6-6--4-4-4-4--2-2-2-2-2-2-2-2----4----------|
A|---2-2-2-2----2-2-2-2------6-6-6-6--4-4-4-4--2-2-2-2-2-2-2-2----4--LET RING|
E|---------------------------4-4-4-4--2-2-2-2--0-0-0-0-0-0-0-0----2----------|

     PLEASE TAKE ME HOME
e|---------------------------------------------------------------------------|
B|---------------------------------------------------------------------------|
G|---4-4-4-4-4-4-4-3-3-3-3-3-3-3---------------------------------------------|
D|---4-4-4-4-4-4-4-3-3-3-3-3-3-3-6-6-6-6-6-6-6-2-2-2-2-2-2-2----(REPEAT)-----|
A|---2-2-2-2-2-2-2-1-1-1-1-1-1-1-6-6-6-6-6-6-6-2-2-2-2-2-2-2-----------------|
E|-------------------------------4-4-4-4-4-4-4-0-0-0-0-0-0-0-----------------|

     VERSE
e|-----------------------(palm muted)----------------------------------------|
B|---------------------------------------------------------------------------|
G|-x----4-4-4-4-4-4-4-4-6-6-6-6-6-6-6-6-8-8-8-8-8-8-8-8----------------------|
D|-x----4-4-4-4-4-4-4-4-6-6-6-6-6-6-6-6-8-8-8-8-8-8-8-8----------------------|
A|-x----2-2-2-2-2-2-2-2-4-4-4-4-4-4-4-4-6-6-6-6-6-6-6-6-6-6-6h7--------------|
E|---------------------------------------------------------------------------|
 
      she's unstopable, unpredictable
e|---------------------------------------------------------------------------|
B|---------------------------------------------------------------------------|
G|---4-4-4-4----4-4-4-4------------------------------------------------------|
D|---4-4-4-4----4-4-4-4------6-6-6-6--4-4-4-4--2-2-2-2-2-2-2------4----------|
A|---2-2-2-2----2-2-2-2------6-6-6-6--4-4-4-4--2-2-2-2-2-2-2-2----4--LET RING|
E|---------------------------4-4-4-4--2-2-2-2--0-0-0-0-0-0-0-0----2----------|
 
     PLEASE TAKE ME HOME
e|---------------------------------------------------------------------------|
B|---------------------------------------------------------------------------|
G|---4-4-4-4-4-4-4-3-3-3-3-3-3-3---------------------------------------------|
D|---4-4-4-4-4-4-4-3-3-3-3-3-3-3-6-6-6-6-6-6-6-2-2-2-2-2-2-2----(REPEAT)-----|
A|---2-2-2-2-2-2-2-1-1-1-1-1-1-1-6-6-6-6-6-6-6-2-2-2-2-2-2-2-----------------|
E|-------------------------------4-4-4-4-4-4-4-0-0-0-0-0-0-0----------------|

       interlude
e|---------------------------------------------------------------------------|
B|---------------------------------------------------------------------------|
G|---------------------------------------------------------------------------|
D|--------------------2-2----------------------------------------------------|
A|----2-2-4-4--2-2-----------------------------------------------------------|
E|---------------------------------------------------------------------------|
 
     VERSE
e|-----------------------(palm muted)----------------------------------------|
B|---------------------------------------------------------------------------|
G|-x----4-4-4-4-4-4-4-4-6-6-6-6-6-6-6-6-8-8-8-8-8-8-8-8----------------------|
D|-x----4-4-4-4-4-4-4-4-6-6-6-6-6-6-6-6-8-8-8-8-8-8-8-8----------------------|
A|-x----2-2-2-2-2-2-2-2-4-4-4-4-4-4-4-4-6-6-6-6-6-6-6-6-6-6-6h7--------------|
E|---------------------------------------------------------------------------|
 
e|---------(solo)------------------------------------------------------------|
B|---------------------------------------------------------------------------|
G|---------------------------------------------------------------------------|
D|-----------------------1-1-1-1-------------------( x 2)--------------------|
A|---2-2-2-2-2-1-1-1-1-1-----------4-4-4-4-----------------------------------|
E|---------------------------------------------------------------------------|
 
e|---------(solo)------------------------------------------------------------|
B|---------------------------------------------------------------------------|
G|---------------------------------------------------------------------------|
D|---1-1-1-1-1-1-1-1-1-1-1------------( x 2)----4----------------------------|
A|---------------------------2-2-2-2-2-----------4---------------------------|
E|-----------------------------------------------------2---------------------|
 
     PLEASE TAKE ME HOME
e|---------------------------------------------------------------------------|
B|---------------------------------------------------------------------------|
G|--------- 4-4-4-4-4-4-4-3-3-3-3-3-3-3--------------------------------------|
D|---4------4-4-4-4-4-4-4-3-3-3-3-3-3-3-6-6-6-6-6-6-6-2-2-2-2-2-2-2-(REPEAT)-|
A|---4------2-2-2-2-2-2-2-1-1-1-1-1-1-1-6-6-6-6-6-6-6-2-2-2-2-2-2-2----------|
E|---2----------------------------------4-4-4-4-4-4-4-0-0-0-0-0-0-0----------|
 
e|---------(solo)------------------------------------------------------------|
B|---------------------------------------------------------------------------|
G|---------------------------------------------------------------------------|
D|---1-1-1-1-1-1-1-1-1-1-1------------( x 2)---------------------------------|
A|-------------------------2-2-2-2-2-----------2-----------------------------|
E|---------------------------------------------------------------------------|

-------------------------------------------------------------------------------
Get this song at amazon.com      Ebay     Ringtones Ringtones  


Learn to play: Songwriting, Piano, Harmonica, Guitar
Also available at Muzikum: Blink 182 - Hollywood lyrics

Related Blink 182 Tabs

Don't Leave Me (live) tabs
Time To Wake Up tabs
Carousel Intro tabs
Blow Job tabs
Girl Next Door tabs
Adams Song Interlude tabs
Hollywood tabs
Wasting Time tabs
The Longest Line Solo tabs
Dammit Solo tabs
Feeling This tabs
Good Times tabs
Seasons In The Sun tabs
Online Songs Solo tabs
21 Days2 tabs
I Know A Guy tabs
Asthenia-live tabs
Dammit (live) tabs
Here\'s Your Letter tabs
Fuck A Dog tabs


Guitar Tabs









All tabs are property and copyright of their owners. All tabs provided for educational purposes only. Privacy Policy, DMCA