Blink 182

Here\'s Your Letter Tabs



More from Blink 182

Blink 182 Tabs
Blink 182 Chords
Blink 182 Bass
Blink 182 Lyrics

blink-182

13 - Here\'s Your Letter

Guitar Tab

By stke22



Standard Tuning

Key of F# minor



Notes: Easy song to play. The whole tab is correct except for the 1st and 2nd verses.

Enjoy.







INTRO

=====



Effect Guitar

Some sort of delay and harmonic effects. The pitch goes up and down along the key.

Continue to play throughout the whole INTRO.



E|--------------------------------|

B|--------------------------------|

G|--------------------------------|

D|--------------------------------|

A|--------------------------------|

E|2~------2~------2~------2~------|





Guitar One (full distortion)

Comes in after around 3 seconds.



F#5 (7) D5 (sus2) A/C# B5

E|----------------|----------------|----------------|----------------|

B|----------------|----------------|----------------|----------------|

G|----------------|7-7-7-7-7-7-7---|6-6-6-6-6-6-6---|4-4-4-4-4-4-4-4-|

D|4-4-4-4-4-4-4---|7-7-7-7-7-7-7---|7-7-7-7-7-7-7---|4-4-4-4-4-4-4-4-|

A|4-4-4-4-4-4-4-0-|5-5-5-5-5-5-5-0-|4-4-4-4-4-4-4-0-|2-2-2-2-2-2-2-2-|

E|2-2-2-2-2-2-2-0-|--------------0-|--------------0-|----------------|



F#5 D5 A5

E|----------------|----------------|----------------|----------------|

B|----------------|----------------|----------------|----------------|

G|----------------|7-7-7-7-7-7-7-7-|----------------|----------------|

D|4-4-4-4-4-4-4---|7-7-7-7-7-7-7-7-|7-7-7-7-7-7-7-7-|7-7-7-7-7-7-7-7-|

A|4-4-4-4-4-4-4-0-|5-5-5-5-5-5-5-5-|7-7-7-7-7-7-7-7-|7-7-7-7-7-7-7-7-|

E|2-2-2-2-2-2-2-0-|----------------|5-5-5-5-5-5-5-5-|5-5-5-5-5-5-5-5-|





Guitar Two (distortion)

Follow Guitar One.



E|----------------|----------------|----------------|----------------|

B|----------------|----------------|----------------|----------------|

G|9-9-9-9-9-9-9-9-|9-9-9-9-9-9-9-9-|6-6-6-6-6-6-6-6-|4-4-4-4-4-4-4-4-|

D|x-x-x-x-x-x-x-x-|x-x-x-x-x-x-x-x-|x-x-x-x-x-x-x-x-|x-x-x-x-x-x-x-x-|

A|7-7-7-7-7-7-7-7-|7-7-7-7-7-7-7-7-|4-4-4-4-4-4-4-4-|2-2-2-2-2-2-2-2-|

E|----------------|----------------|----------------|----------------|



E|----------------|----------------|----------------|----------------|

B|----------------|----------------|----------------|----------------|

G|----------------|7-7-7-7-7-7-7-7-|----------------|----------------|

D|4-4-4-4-4-4-4-4-|x-x-x-x-x-x-x-x-|7-7-7-7-7-7-7-7-|7-7-7-7-7-7-7-7-|

A|x-x-x-x-x-x-x-x-|5-5-5-5-5-5-5-5-|x-x-x-x-x-x-x-x-|x-x-x-x-x-x-x-x-|

E|2-2-2-2-2-2-2-2-|----------------|5-5-5-5-5-5-5-5-|5-5-5-5-5-5-5-5-|









1st VERSE

=========



Guitar One

Hold for four measures.



E|----------------|

B|----------------|

G|----------------|

D|7~--------------|

A|7~--------------|

E|5~--------------|





Weird palm muted picking.



(F#) (D) (A) (B) (C#)

E|----------------|----------------|----------------|----------------|

B|----------------|----------------|----------------|----------------|

G|----------------|----------------|----------------|----------------|

D|----------------|----------------|----------------|----------------|

A|----------------|----------------|----------------|----------------|

E|2-2-2-4-4-4-5-5-|5-5-5-5-5-5-5-5-|5-5-5-5-5-5-5-5-|7-7-7-7-9-9-9-9-|



(F#) (D) A5

E|----------------|----------------|----------------|----------------|

B|----------------|----------------|----------------|----------------|

G|----------------|----------------|6~--------------|----------------|

D|----------------|----------------|7~--------------|----------------|

A|----------------|----------------|7~--------------|----------------|

E|9-9-9-9-9-9-9-9-|2-2-2-4-4-4-5-5-|5~--------------|----------------|



Lyrics:

Cut the skin to the bone

Fall asleep all alone

Hear your voice in the dark

Lose myself in your eyes

Choke my voice say goodnight

As the world falls apart







1st CHORUS

==========



Guitar One



A5 C#5 E5 F#5 D5

E|--------------------------------|--------------------------------|

B|--------------------------------|--------------------------------|

G|------6-6-6---------------------|7-7-7-7~----7-7-7-7~----7-7~----|

D|7-7-7-6-6-6-2-2-2-4-4-4-4-4-4---|7-7-7-7~----7-7-7-7~----7-7~----|

A|7-7-7-4-4-4-2-2-2-4-4-4-4-4-4-0-|5-5-5-5~----5-5-5-5~----5-5~----|

E|5-5-5-------0-0-0-2-2-2-2-2-2-0-|--------------------------------|



A5 C#5 E5 F#5 D5

E|--------------------------------|--------------------------------|

B|--------------------------------|--------------------------------|

G|------6-6-6---------------------|7-7-7-7~----7-7-7-7~----7-7-----|

D|7-7-7-6-6-6-2-2-2-4-4-4-4-4-4---|7-7-7-7~----7-7-7-7~----7-7-----|

A|7-7-7-4-4-4-2-2-2-4-4-4-4-4-4-0-|5-5-5-5~----5-5-5-5~----5-5-----|

E|5-5-5-------0-0-0-2-2-2-2-2-2-0-|--------------------------------|



Lyrics:

F*ck I can\'t let this kill me let go

I need some more time to fix this







RE-INTRO

========



Effect Guitar

Play throughout the RE-INTRO.



E|--------------------------------|

B|--------------------------------|

G|--------------------------------|

D|--------------------------------|

A|--------------------------------|

E|2~------2~------2~------2~------|





Guitar One



F#5 (7) D5 (sus2) A/C# B5

E|----------------|----------------|----------------|----------------|

B|----------------|----------------|----------------|----------------|

G|----------------|7-7-7-7-7-7-7---|6-6-6-6-6-6-6---|4-4-4-4-4-4-4-4-|

D|4-4-4-4-4-4-4---|7-7-7-7-7-7-7---|7-7-7-7-7-7-7---|4-4-4-4-4-4-4-4-|

A|4-4-4-4-4-4-4-0-|5-5-5-5-5-5-5-0-|4-4-4-4-4-4-4-0-|2-2-2-2-2-2-2-2-|

E|2-2-2-2-2-2-2-0-|--------------0-|--------------0-|----------------|



F#5 D5 A5

E|----------------|----------------|----------------|----------------|

B|----------------|----------------|----------------|----------------|

G|----------------|7-7-7-7-7-7-7-7-|----------------|----------------|

D|4-4-4-4-4-4-4---|7-7-7-7-7-7-7-7-|7-7-7-7-7-7-7-7-|7-7-7-7-7-7-7-7-|

A|4-4-4-4-4-4-4-0-|5-5-5-5-5-5-5-5-|7-7-7-7-7-7-7-7-|7-7-7-7-7-7-7-7-|

E|2-2-2-2-2-2-2-0-|----------------|5-5-5-5-5-5-5-5-|5-5-5-5-5-5-5-5-|





Guitar Two



E|----------------|----------------|----------------|----------------|

B|----------------|----------------|----------------|----------------|

G|9-9-9-9-9-9-9-9-|9-9-9-9-9-9-9-9-|6-6-6-6-6-6-6-6-|4-4-4-4-4-4-4-4-|

D|x-x-x-x-x-x-x-x-|x-x-x-x-x-x-x-x-|x-x-x-x-x-x-x-x-|x-x-x-x-x-x-x-x-|

A|7-7-7-7-7-7-7-7-|7-7-7-7-7-7-7-7-|4-4-4-4-4-4-4-4-|2-2-2-2-2-2-2-2-|

E|----------------|----------------|----------------|----------------|



E|----------------|----------------|----------------|----------------|

B|----------------|----------------|----------------|----------------|

G|----------------|7-7-7-7-7-7-7-7-|----------------|----------------|

D|4-4-4-4-4-4-4-4-|x-x-x-x-x-x-x-x-|7-7-7-7-7-7-7-7-|7-7-7-7-7-7-7-7-|

A|x-x-x-x-x-x-x-x-|5-5-5-5-5-5-5-5-|x-x-x-x-x-x-x-x-|x-x-x-x-x-x-x-x-|

E|2-2-2-2-2-2-2-2-|----------------|5-5-5-5-5-5-5-5-|5-5-5-5-5-5-5-5-|









2nd VERSE

=========



Guitar One

Hold for four measures.



E|----------------|

B|----------------|

G|----------------|

D|7~--------------|

A|7~--------------|

E|5~--------------|





Weird palm muted picking.



(F#) (D) (A) (B) (C#)

E|----------------|----------------|----------------|----------------|

B|----------------|----------------|----------------|----------------|

G|----------------|----------------|----------------|----------------|

D|----------------|----------------|----------------|----------------|

A|----------------|----------------|----------------|----------------|

E|2-2-2-4-4-4-5-5-|5-5-5-5-5-5-5-5-|5-5-5-5-5-5-5-5-|7-7-7-7-9-9-9-9-|



(F#) (D) A5

E|----------------|----------------|----------------|----------------|

B|----------------|----------------|----------------|----------------|

G|----------------|----------------|6~--------------|----------------|

D|----------------|----------------|7~--------------|----------------|

A|----------------|----------------|7~--------------|----------------|

E|9-9-9-9-9-9-9-9-|2-2-2-4-4-4-5-5-|5~--------------|----------------|



Lyrics:

Here\'s a letter for you

But the words get confused

And the conversation dies

Apoligize for the past

Talks of sh*t take it back

Are we cursed to this life







2nd CHORUS

==========



Guitar One



A5 C#5 E5 F#5 D5

E|--------------------------------|--------------------------------|

B|--------------------------------|--------------------------------|

G|------6-6-6---------------------|7-7-7-7~----7-7-7-7~----7-7~----|

D|7-7-7-6-6-6-2-2-2-4-4-4-4-4-4---|7-7-7-7~----7-7-7-7~----7-7~----|

A|7-7-7-4-4-4-2-2-2-4-4-4-4-4-4-0-|5-5-5-5~----5-5-5-5~----5-5~----|

E|5-5-5-------0-0-0-2-2-2-2-2-2-0-|--------------------------------|



A5 C#5 E5 F#5 D5

E|--------------------------------|--------------------------------|

B|--------------------------------|--------------------------------|

G|------6-6-6---------------------|7-7-7-7~----7-7-7-7~----7-7~----|

D|7-7-7-6-6-6-2-2-2-4-4-4-4-4-4---|7-7-7-7~----7-7-7-7~----7-7~----|

A|7-7-7-4-4-4-2-2-2-4-4-4-4-4-4-0-|5-5-5-5~----5-5-5-5~----5-5~----|

E|5-5-5-------0-0-0-2-2-2-2-2-2-0-|--------------------------------|



A5 C#5 E5 F#5 D5

E|--------------------------------|--------------------------------|

B|--------------------------------|--------------------------------|

G|------6-6-6---------------------|7-7-7-7~----7-7-7-7~----7-7~----|

D|7-7-7-6-6-6-2-2-2-4-4-4-4-4-4---|7-7-7-7~----7-7-7-7~----7-7~----|

A|7-7-7-4-4-4-2-2-2-4-4-4-4-4-4-0-|5-5-5-5~----5-5-5-5~----5-5~----|

E|5-5-5-------0-0-0-2-2-2-2-2-2-0-|--------------------------------|



A5 C#5 E5 F#5 D5

E|--------------------------------|--------------------------------|

B|--------------------------------|--------------------------------|

G|------6-6-6---------------------|7-7-7-7~----7-7-7-7~----7-7-----|

D|7-7-7-6-6-6-2-2-2-4-4-4-4-4-4---|7-7-7-7~----7-7-7-7~----7-7-----|

A|7-7-7-4-4-4-2-2-2-4-4-4-4-4-4-0-|5-5-5-5~----5-5-5-5~----5-5-----|

E|5-5-5-------0-0-0-2-2-2-2-2-2-0-|--------------------------------|



Lyrics:

F*ck I can\'t let this kill me let go

I need some more time to fix this problem

I need some more time to fix this problem

I need some more time to fix this







BRIDGE

======



Guitar One



A/C# D5

E|--------------------------------|--------------------------------|

B|--------------------------------|--------------------------------|

G|6-6-6-6-6-6-6-6-6-6-6-6-6-6-6-7~|--7-7-7-7-7-7-7-7-7-7-7-7-7-7-7-|

D|7-7-7-7-7-7-7-7-7-7-7-7-7-7-7-7~|--7-7-7-7-7-7-7-7-7-7-7-7-7-7-7-|

A|4-4-4-4-4-4-4-4-4-4-4-4-4-4-4-5~|--5-5-5-5-5-5-5-5-5-5-5-5-5-5-5-|

E|--------------------------------|--------------------------------|



A/C# D5

E|--------------------------------|--------------------------------|

B|--------------------------------|--------------------------------|

G|6-6-6-6-6-6-6-6-6-6-6-6-6-6-6-7~|--7-7-7-7-7-7-7-7-7-7-7-7-7-7-7-|

D|7-7-7-7-7-7-7-7-7-7-7-7-7-7-7-7~|--7-7-7-7-7-7-7-7-7-7-7-7-7-7-7-|

A|4-4-4-4-4-4-4-4-4-4-4-4-4-4-4-5~|--5-5-5-5-5-5-5-5-5-5-5-5-5-5-5-|

E|--------------------------------|--------------------------------|







3rd VERSE

=========



Guitar One



F#5 G#5

E|--------------------------------|--------------------------------|

B|--------------------------------|--------------------------------|

G|--------------------------------|--------------------------------|

D|4-4-4-4-4-4-4-4-4-4-4-4-4-4-4-4-|6-6-6-6-6-6-6-6-6-6-6-6-6-6-6-6-|

A|4-4-4-4-4-4-4-4-4-4-4-4-4-4-4-4-|6-6-6-6-6-6-6-6-6-6-6-6-6-6-6-6-|

E|2-2-2-2-2-2-2-2-2-2-2-2-2-2-2-2-|4-4-4-4-4-4-4-4-4-4-4-4-4-4-4-4-|



D5

E|--------------------------------|--------------------------------|

B|--------------------------------|--------------------------------|

G|7-7-7-7-7-7-7-7-7-7-7-7-7-7-7-7-|7-7-7-7-7-7-7-7-7-7-7-7-7-7-7-7-|

D|7-7-7-7-7-7-7-7-7-7-7-7-7-7-7-7-|7-7-7-7-7-7-7-7-7-7-7-7-7-7-7-7-|

A|5-5-5-5-5-5-5-5-5-5-5-5-5-5-5-5-|5-5-5-5-5-5-5-5-5-5-5-5-5-5-5-5-|

E|--------------------------------|--------------------------------|



F#5 G#5

E|--------------------------------|--------------------------------|

B|--------------------------------|--------------------------------|

G|--------------------------------|--------------------------------|

D|4-4-4-4-4-4-4-4-4-4-4-4-4-4-4-4-|6-6-6-6-6-6-6-6-6-6-6-6-6-6-6-6-|

A|4-4-4-4-4-4-4-4-4-4-4-4-4-4-4-4-|6-6-6-6-6-6-6-6-6-6-6-6-6-6-6-6-|

E|2-2-2-2-2-2-2-2-2-2-2-2-2-2-2-2-|4-4-4-4-4-4-4-4-4-4-4-4-4-4-4-4-|



D5

E|--------------------------------|--------------------------------|

B|--------------------------------|--------------------------------|

G|7-7-7-7-7-7-7-7-7-7-7-7-7-7-7-7-|7-7-7-7-7-7-7-7-7-7-7-7-7-7-7-7-|

D|7-7-7-7-7-7-7-7-7-7-7-7-7-7-7-7-|7-7-7-7-7-7-7-7-7-7-7-7-7-7-7-7-|

A|5-5-5-5-5-5-5-5-5-5-5-5-5-5-5-5-|5-5-5-5-5-5-5-5-5-5-5-5-5-5-5-5-|

E|--------------------------------|--------------------------------|



Lyrics:

I\'m talking to the ceiling

My life just lost all meaning

Do one thing for me tonight

I\'m dieing in this silence

The last star left in heaven

Has fallen down to earth and

Do you still feel the same way?

Do you still feel the same way?







3rd CHORUS

==========



Guitar One



A5 C#5 E5 F#5 D5

E|--------------------------------|--------------------------------|

B|--------------------------------|--------------------------------|

G|------6-6-6---------------------|7-7-7-7~----7-7-7-7~----7-7~----|

D|7-7-7-6-6-6-2-2-2-4-4-4-4-4-4---|7-7-7-7~----7-7-7-7~----7-7~----|

A|7-7-7-4-4-4-2-2-2-4-4-4-4-4-4-0-|5-5-5-5~----5-5-5-5~----5-5~----|

E|5-5-5-------0-0-0-2-2-2-2-2-2-0-|--------------------------------|



A5 C#5 E5 F#5 D5

E|--------------------------------|--------------------------------|

B|--------------------------------|--------------------------------|

G|------6-6-6---------------------|7-7-7-7~----7-7-7-7~----7-7~----|

D|7-7-7-6-6-6-2-2-2-4-4-4-4-4-4---|7-7-7-7~----7-7-7-7~----7-7~----|

A|7-7-7-4-4-4-2-2-2-4-4-4-4-4-4-0-|5-5-5-5~----5-5-5-5~----5-5~----|

E|5-5-5-------0-0-0-2-2-2-2-2-2-0-|--------------------------------|



A5 C#5 E5 F#5 D5

E|--------------------------------|--------------------------------|

B|--------------------------------|--------------------------------|

G|------6-6-6---------------------|7-7-7-7~----7-7-7-7~----7-7~----|

D|7-7-7-6-6-6-2-2-2-4-4-4-4-4-4---|7-7-7-7~----7-7-7-7~----7-7~----|

A|7-7-7-4-4-4-2-2-2-4-4-4-4-4-4-0-|5-5-5-5~----5-5-5-5~----5-5~----|

E|5-5-5-------0-0-0-2-2-2-2-2-2-0-|--------------------------------|



A5 C#5 E5 F#5 D5

E|--------------------------------|--------------------------------|

B|--------------------------------|--------------------------------|

G|------6-6-6---------------------|7-7-7-7~----7-7-7-7~----7-7-----|

D|7-7-7-6-6-6-2-2-2-4-4-4-4-4-4---|7-7-7-7~----7-7-7-7~----7-7-----|

A|7-7-7-4-4-4-2-2-2-4-4-4-4-4-4-0-|5-5-5-5~----5-5-5-5~----5-5-----|

E|5-5-5-------0-0-0-2-2-2-2-2-2-0-|--------------------------------|



Lyrics:

F*ck I can\'t let this kill me let go

I need some more time to fix this problem

I need some more time to fix this problem

I need some more time to fix this







OUTRO

=====



Effect Guitar

Play throughout the OUTRO.



E|--------------------------------|

B|--------------------------------|

G|--------------------------------|

D|--------------------------------|

A|--------------------------------|

E|2~------2~------2~------2~------|





Guitar One



F#5 (7) D5 (sus2) A/C# B5

E|----------------|----------------|----------------|----------------|

B|----------------|----------------|----------------|----------------|

G|----------------|7-7-7-7-7-7-7---|6-6-6-6-6-6-6---|4-4-4-4-4-4-4-4-|

D|4-4-4-4-4-4-4---|7-7-7-7-7-7-7---|7-7-7-7-7-7-7---|4-4-4-4-4-4-4-4-|

A|4-4-4-4-4-4-4-0-|5-5-5-5-5-5-5-0-|4-4-4-4-4-4-4-0-|2-2-2-2-2-2-2-2-|

E|2-2-2-2-2-2-2-0-|--------------0-|--------------0-|----------------|



F#5 D5 A5

E|----------------|----------------|----------------|----------------|

B|----------------|----------------|----------------|----------------|

G|----------------|7-7-7-7-7-7-7-7-|----------------|----------------|

D|4-4-4-4-4-4-4---|7-7-7-7-7-7-7-7-|7-7-7-7-7-7-7-7-|7-7-7-7-7-7-7-7-|

A|4-4-4-4-4-4-4-0-|5-5-5-5-5-5-5-5-|7-7-7-7-7-7-7-7-|7-7-7-7-7-7-7-7-|

E|2-2-2-2-2-2-2-0-|----------------|5-5-5-5-5-5-5-5-|5-5-5-5-5-5-5-5-|





Guitar Two



E|----------------|----------------|----------------|----------------|

B|----------------|----------------|----------------|----------------|

G|9-9-9-9-9-9-9-9-|9-9-9-9-9-9-9-9-|6-6-6-6-6-6-6-6-|4-4-4-4-4-4-4-4-|

D|x-x-x-x-x-x-x-x-|x-x-x-x-x-x-x-x-|x-x-x-x-x-x-x-x-|x-x-x-x-x-x-x-x-|

A|7-7-7-7-7-7-7-7-|7-7-7-7-7-7-7-7-|4-4-4-4-4-4-4-4-|2-2-2-2-2-2-2-2-|

E|----------------|----------------|----------------|----------------|



E|----------------|----------------|----------------|----------------|

B|----------------|----------------|----------------|----------------|

G|----------------|7-7-7-7-7-7-7-7-|----------------|----------------|

D|4-4-4-4-4-4-4-4-|x-x-x-x-x-x-x-x-|7-7-7-7-7-7-7-7-|7-7-7-7-7-7-7-7-|

A|x-x-x-x-x-x-x-x-|5-5-5-5-5-5-5-5-|x-x-x-x-x-x-x-x-|x-x-x-x-x-x-x-x-|

E|2-2-2-2-2-2-2-2-|----------------|5-5-5-5-5-5-5-5-|5-5-5-5-5-5-5-5-|





Guitar One



E|----------------|

B|----------------|

G|----------------|

D|4~--------------|

A|4~--------------|

E|2~--------------|







2:54



The End

Get this song at amazon.com      Ebay     Ringtones Ringtones  


Learn to play: Songwriting, Piano, Harmonica, Guitar
Also available at Muzikum: Blink 182 - Here's your letter lyrics

Related Blink 182 Tabs

Stay Together For The Kids tabs
Blow Job Song tabs
Blink 182 tabs
Online Songs Solo tabs
Blow Job tabs
Chesire Cat tabs
Eddy tabs
Red Skies tabs
The Grandpa Song tabs
Baby One More Time tabs
Wendy Clear Bass tabs
Does My Breath Smell tabs
Adams Song (guitar Tab) tabs
Cacophony tabs
Going Away To College (Live) tabs
First Date (live) Guitar Tab tabs
Story Of A Lonley Guy tabs
Adam\'s Song tabs
Asthenia tabs
F A Dog tabs


Guitar Tabs









All tabs are property and copyright of their owners. All tabs provided for educational purposes only. Privacy Policy, DMCA

Online converter - videoconverter.com