Blink 182

Here\'s Your Letter Bass Tabs



More from Blink 182

Blink 182 Tabs
Blink 182 Chords
Blink 182 Bass
Blink 182 Lyrics




Song: Here's Your Letter
Band: Blink 182

Intro
G|--------|--------|--------|--------|
D|--------|--------|--------|--------|
A|--------|55555555|00000000|22222222|
E|22222222|--------|--------|--------|

G|--------|--------|--------|--------|
D|--------|--------|--------|--------|
A|--------|55555555|00000000|00000000|
E|22222222|--------|--------|--------|

Verse
G|--------|--------|--------|---------|
D|--------|--------|--------|---------|
A|--------|-5555-5-|-0000-0-|-2222h42-|
E|22222-2-|--------|--------|---------|

G|--------|--------|--------|--------|
D|--------|--------|--------|--------|
A|--------|-5555-5-|00000000|00000000|
E|22222-2-|--------|--------|--------| x2

Chorus (Not sure about this but sounds ok)
G|----------------|----------------|----------------|----------------|
D|----------------|----------------|----------------|----------------|
A|000444----------|5---5-5---5-5-5-|000444----------|5---5-5---5-5---|
E|------0002222222|----------------|------0002222222|----------------|

Intro Again
Verse x2 Again

2nd Chorus
G|----------------|----------------|----------------|----------------|
D|----------------|----------------|----------------|----------------|
A|000444----------|5---5-5---5-5-5-|000444----------|5---5-5---5-5-5-|
E|------0002222222|----------------|------0002222222|----------------|

G|----------------|----------------|----------------|----------------|
D|----------------|----------------|----------------|----------------|
A|000444----------|5---5-5---5-5-5-|000444----------|5---5-5---5-5---|
E|------0002222222|----------------|------0002222222|----------------|

Interlude
G|--------|--------|--------|--------|
D|--------|--------|--------|--------|
A|44444444|44444444|55555555|55555555|
E|--------|--------|--------|--------|x2

G|--------|--------|--------|--------|--------|--------|--------|--------|
D|--------|--------|--------|--------|--------|--------|--------|--------|
A|--------|--------|--------|--------|55555555|55555555|55555555|55555555|
E|22222222|22222222|44444444|44444444|--------|--------|--------|--------|x2

2nd Chorus Again

Intro Again

End on E2



And that's it :D

This is a great song, like all the others from the new album. If you notice
any mistakes, please post corrections. This is my first tab from the new
album and i'll have more coming soon ^^

NOTE: Thanks to my homey B-Mon3y for correcting the verse for me :D

Here's Your Letter - (2:58)

Cut the skin to the bone
fall asleep all alone
hear your voice in the dark
lose myself in your eyes
choke my voice say goodnight
as the world falls apart

Fuck I can't let this kill me, let go
I need some more time to fix this

Here's a letter for you
but the words get confused
and the conversation dies
apologize for the past
talk some shit take it back
are we cursed to this life

Fuck I can't let this kill me, let go
I need some more time to fix this problem
I need some more time to fix this problem
I need some more time to fix this

I'm talking to the ceiling
my life just lost all meaning
do one thing for me tonight
I'm dying in this silence

The last star left in heaven
is falling down to earth and
do you still feel the same way
do you still feel the same way

Fuck I can't let this kill me, let go
I need some more time to fix this problem
I need some more time to fix this problem
I need some more time to fix this



Get this song at amazon.com      Ebay     Ringtones Ringtones  


Learn to play: Songwriting, Piano, Harmonica, Guitar
Also available at Muzikum: Blink 182 - Here's your letter lyrics

Related Blink 182 Bass Tabs

Anthem part 21 bass
Rich Lips bass
Longest Line bass
Im Sorry bass
Good Times bass
Always (perfect) bass
I Miss You bass
Online Song bass
Carousel (full Length) bass
The anthem pt2 bass
Violence Piano Part On Bass bass
M + Ms 1000% bass
Asthenia(perfect) bass
Dont Leave Me bass
Alone bass
I'm Lost Without You bass
Dick Lips bass
Does My Breath Smell bass
Whats My Age Again bass
Going Away To College bass


Guitar Tabs









All tabs are property and copyright of their owners. All tabs provided for educational purposes only. Privacy Policy, DMCA