Blink 182

Heart\'s All Gone Bass Tabs



More from Blink 182

Blink 182 Tabs
Blink 182 Chords
Blink 182 Bass
Blink 182 Lyrics

Intro


g--------------------------------------------------------------------------|
d--------------------------------------------------------------------------|
a-----0000-0000000000------------------------------------------------------|
e--------------------1111-1111111111---------------------------------------|


Verse 1.1

g--------------------------------------------------------------------------|
d--------------------------------------------------------------------------|
a-----0~000000000000000~000000000000008~888888888888888~88888888888888-----|
e--------------------------------------------------------------------------|


Verse 1.2

g----------------------------------------------------------------------------|
d----------------------------------------------------------------------------|
a---0~0000000000000000000000000000088888888888888810101010101010101010101010-|
e----------------------------------------------------------------------------|


Chorus

g--------------------------------------------------------------------------|
d--------------------------------------------------------------------------|
a-----3~333333333333335~55555555555555-------------------------------------|
e-------------------------------------0~0000001~1111110~0000001~111111-----|


Bridge 1

g--------------------------------------------------------------------------|
d-----77-577-799-91097--------1010-1012109---------------------------------|
a---------------------88-788-7---------------------------------------------|
e--------------------------------------------------------------------------|


Bridge 2

g--------------------------------------------------------------------------|
d--------------------------------------------------------------------------|
a-----0~0000000~0000000~0000000~000000-------------------------------------|
e-------------------------------------1~111111~1111111~1111111~111111------|
Get this song at amazon.com      Ebay     Ringtones Ringtones  


Learn to play: Songwriting, Piano, Harmonica, Guitar
Also available at Muzikum: Blink 182 - Heart's All Gone lyrics

Related Blink 182 Bass Tabs

Here\'s Your Letter bass
Anthem Part 2 bass
Dammit Live (warped Tour) bass
Feelin This bass
Online Song bass
Untitled bass
Carousel Buddha bass
Carosel bass
Anthem Prt Ii bass
Whats My Age Again Live bass
Emo bass
Action(feeling This) bass
I Know A Guy bass
The Rockshow bass
M+ms bass
Wont Be Home For Christmas bass
Album bass
The anthem pt2 bass
Happy Holidays U B****** bass
21 Days bass


Guitar Tabs









All tabs are property and copyright of their owners. All tabs provided for educational purposes only. Privacy Policy, DMCA