Blink 182

Heart\'s All Gone Interlude Chords, Tabs



More from Blink 182

Blink 182 Tabs
Blink 182 Chords
Blink 182 Bass
Blink 182 Lyrics

Key: C

Chords used:
Am    x02210
Dm    xx0231
F     133211
Em    022000
C     x32010
C/E   032xxx


Verse 1:

Piano:
          Am          F
e|-------5--------5-|---|
B|----5--------5----|-6-|
G|------------------|---|
D|-7--------7-------|---| x5
A|------------------|---|
E|------------------|---|

         Am         F   G
e|-------5------5-|---|---|
B|----5------5----|-6-|-8-|
G|----------------|---|---|
D|-7------7-------|---|---|
A|----------------|---|---|
E|----------------|---|---|


Guitar:
              Am
e|---------------------------|
B|---------------------------|
G|-------5-5----------5-5----|
D|---------------------------|
A|-0--0-------0--0--0------0-|
E|---------------------------|

      F       C/E      F        C/E
e|---------|------|---------|------|
B|---------|------|---------|------|
G|-------5-|----5-|-------5-|----5-|
D|-3--3----|-2----|-3--3----|-2----|
A|---------|------|---------|------|
E|---------|------|---------|------|

              Am
e|---------------------------|
B|---------------------------|
G|-------5-5----------5-5--7-|
D|---------------------------|
A|-0--0-------0--0--0--------|
E|---------------------------|

      F       C/E      F        C/E
e|---------|------|---------|------|
B|---------|------|---------|------|
G|-------5-|----5-|-------5-|----5-|
D|-3--3----|-2----|-3--3----|-2----|
A|---------|------|---------|------|
E|---------|------|---------|------|

              Am
e|---------------------------|
B|---------------------------|
G|-------5-5----------5-5----|
D|---------------------------|
A|-0--0-------0--0--0------0-|
E|---------------------------|

      F       C/E      F        C/E
e|---------|------|---------|------|
B|---------|------|---------|------|
G|-------5-|----5-|-------5-|----5-|
D|-3--3----|-2----|-3--3----|-2----|
A|---------|------|---------|------|
E|---------|------|---------|------|

              Am
e|---------------------------|
B|---------------------------|
G|-------5-5----------5-5--7-|
D|---------------------------|
A|-0--0-------0--0--0--------|
E|---------------------------|

      F       C/E      F        C/E
e|---------|------|---------|------|
B|---------|------|---------|------|
G|-------5-|----5-|-------5-|----5-|
D|-3--3----|-2----|-3--3----|-2----|
A|---------|------|---------|------|
E|---------|------|---------|------|


Chorus 1:

Piano:
   C  Dm   F
e|---|---|---|
B|-1-|-3-|-6-|
G|---|---|---|
D|---|---|---|
A|---|---|---|
E|---|---|---|

Guitar:
   F        C        G       Dm
e|---|-------------|---|-------------|
B|---|-------------|---|-------------|
G|---|-5--5--5-5-5-|---|-7--7--7-7-7-|
D|-3-|-5--5--5-5-5-|-5-|-7--7--7-7-7-|
A|-3-|-3--3--3-3-3-|-5-|-5--5--5-5-5-|
E|-1-|-------------|-3-|-------------|

      F       Em       F       Em
e|---------|------|---------|------|
B|---------|------|---------|------|
G|---------|------|---------|------|
D|-3--3--3-|-2--2-|-3--3--3-|-2--2-|
A|-3--3--3-|-2--2-|-3--3--3-|-2--2-|
E|-1--1--1-|-0--0-|-1--1--1-|-0--0-|

Piano:
   C  Dm   F
e|---|---|---|
B|-1-|-3-|-6-|
G|---|---|---|
D|---|---|---|
A|---|---|---|
E|---|---|---|

Guitar:
   F        C        G       Dm
e|---|-------------|---|-------------|
B|---|-------------|---|-------------|
G|---|-5--5--5-5-5-|---|-7--7--7-7-7-|
D|-3-|-5--5--5-5-5-|-5-|-7--7--7-7-7-|
A|-3-|-3--3--3-3-3-|-5-|-5--5--5-5-5-|
E|-1-|-------------|-3-|-------------|

      F       Em       F       Em
e|---------|------|---------|------|
B|---------|------|---------|------|
G|---------|------|---------|------|
D|-3--3--3-|-2--2-|-3--3--3-|-2--2-|
A|-3--3--3-|-2--2-|-3--3--3-|-2--2-|
E|-1--1--1-|-0--0-|-1--1--1-|-0--0-|


Verse 2:

Piano:
          Am          F
e|------------------|---|
B|----------------2-|---|
G|-------2-----2----|---|
D|----2-----0-------|-3-| x3
A|-0----------------|---|
E|------------------|---|

          Am          F
e|------------------|---|
B|----------------2-|-6-|
G|-------2-----2----|---|
D|----2-----0-------|---|
A|-0----------------|---|
E|------------------|---|


Guitar:
              Am
e|---------------------------|
B|---------------------------|
G|-------5-5----------5-5----|
D|---------------------------|
A|-0--0-------0--0--0------0-|
E|---------------------------|

      F       C/E      F        C/E
e|---------|------|---------|------|
B|---------|------|---------|------|
G|-------5-|----5-|-------5-|----5-|
D|-3--3----|-2----|-3--3----|-2----|
A|---------|------|---------|------|
E|---------|------|---------|------|

              Am
e|---------------------------|
B|---------------------------|
G|-------5-5----------5-5--7-|
D|---------------------------|
A|-0--0-------0--0--0--------|
E|---------------------------|

      F       C/E      F        C/E
e|---------|------|---------|------|
B|---------|------|---------|------|
G|-------5-|----5-|-------5-|----5-|
D|-3--3----|-2----|-3--3----|-2----|
A|---------|------|---------|------|
E|---------|------|---------|------|

              Am
e|---------------------------|
B|---------------------------|
G|-------5-5----------5-5----|
D|---------------------------|
A|-0--0-------0--0--0------0-|
E|---------------------------|

      F       C/E      F        C/E
e|---------|------|---------|------|
B|---------|------|---------|------|
G|-------5-|----5-|-------5-|----5-|
D|-3--3----|-2----|-3--3----|-2----|
A|---------|------|---------|------|
E|---------|------|---------|------|

              Am
e|---------------------------|
B|---------------------------|
G|-------5-5----------5-5--7-|
D|---------------------------|
A|-0--0-------0--0--0--------|
E|---------------------------|

      F       C/E      F        C/E
e|---------|------|---------|------|
B|---------|------|---------|------|
G|-------5-|----5-|-------5-|----5-|
D|-3--3----|-2----|-3--3----|-2----|
A|---------|------|---------|------|
E|---------|------|---------|------|


Chorus 2:

Piano:
   C  Dm   F
e|---|---|---|
B|-1-|-3-|-6-|
G|---|---|---|
D|---|---|---|
A|---|---|---|
E|---|---|---|

Guitar:
   F        C        G       Dm
e|---|-------------|---|-------------|
B|---|-------------|---|-------------|
G|---|-5--5--5-5-5-|---|-7--7--7-7-7-|
D|-3-|-5--5--5-5-5-|-5-|-7--7--7-7-7-|
A|-3-|-3--3--3-3-3-|-5-|-5--5--5-5-5-|
E|-1-|-------------|-3-|-------------|

      F       Em       F       Em
e|---------|------|---------|------|
B|---------|------|---------|------|
G|---------|------|---------|------|
D|-3--3--3-|-2--2-|-3--3--3-|-2--2-|
A|-3--3--3-|-2--2-|-3--3--3-|-2--2-|
E|-1--1--1-|-0--0-|-1--1--1-|-0--0-|

Piano:
   C  Dm   F
e|---|---|---|
B|-1-|-3-|-6-|
G|---|---|---|
D|---|---|---|
A|---|---|---|
E|---|---|---|

Guitar:
   F        C        G       Dm
e|---|-------------|---|-------------|
B|---|-------------|---|-------------|
G|---|-5--5--5-5-5-|---|-7--7--7-7-7-|
D|-3-|-5--5--5-5-5-|-5-|-7--7--7-7-7-|
A|-3-|-3--3--3-3-3-|-5-|-5--5--5-5-5-|
E|-1-|-------------|-3-|-------------|

      F       Em       F       Em
e|---------|------|---------|------|
B|---------|------|---------|------|
G|---------|------|---------|------|
D|-3--3--3-|-2--2-|-3--3--3-|-2--2-|
A|-3--3--3-|-2--2-|-3--3--3-|-2--2-|
E|-1--1--1-|-0--0-|-1--1--1-|-0--0-|

Piano:
   C  Dm   F
e|-3-|---|---|
B|---|-3-|-6-|
G|---|---|---|
D|---|---|---|
A|---|---|---|
E|---|---|---|

Guitar:
   F        C        G       Dm
e|---|-------------|---|-------------|
B|---|-------------|---|-------------|
G|---|-5--5--5-5-5-|---|-7--7--7-7-7-|
D|-3-|-5--5--5-5-5-|-5-|-7--7--7-7-7-|
A|-3-|-3--3--3-3-3-|-5-|-5--5--5-5-5-|
E|-1-|-------------|-3-|-------------|

      F       Em       F       Em
e|---------|------|---------|------|
B|---------|------|---------|------|
G|---------|------|---------|------|
D|-3--3--3-|-2--2-|-3--3--3-|-2--2-|
A|-3--3--3-|-2--2-|-3--3--3-|-2--2-|
E|-1--1--1-|-0--0-|-1--1--1-|-0--0-|

Piano:
   C  Dm   F
e|-3-|---|---|
B|---|-3-|-6-|
G|---|---|---|
D|---|---|---|
A|---|---|---|
E|---|---|---|

Guitar:
   F        C        G       Dm
e|---|-------------|---|-------------|
B|---|-------------|---|-------------|
G|---|-5--5--5-5-5-|---|-7--7--7-7-7-|
D|-3-|-5--5--5-5-5-|-5-|-7--7--7-7-7-|
A|-3-|-3--3--3-3-3-|-5-|-5--5--5-5-5-|
E|-1-|-------------|-3-|-------------|

      F       Em       F       Em
e|---------|------|---------|------|
B|---------|------|---------|------|
G|---------|------|---------|------|
D|-3--3--3-|-2--2-|-3--3--3-|-2--2-|
A|-3--3--3-|-2--2-|-3--3--3-|-2--2-|
E|-1--1--1-|-0--0-|-1--1--1-|-0--0-|
Get this song at amazon.com      Ebay     Ringtones Ringtones  


Learn to play: Songwriting, Piano, Harmonica, Guitar
More Blink 182 lyrics available at Muzikum

Related Blink 182 Chords

Asthenia chords
This Is Home chords
Rock Show chords
Adams Song chords
Strings chords
Wishing Well chords
Up All Night chords
Love Is Dangerous chords
Dysentery Gary Acoustic chords
Blow Job chords
Kaleidoscope chords
Im Lost Without You chords
Fighting The Gravity chords
Wendy Clear chords
After Midnight chords
MH 4.18.2011 chords
Even If She Falls chords
Im Sorry chords
Natives chords
Heart\'s All Gone Interlude chords


Guitar Tabs









All tabs are property and copyright of their owners. All tabs provided for educational purposes only. Privacy Policy, DMCA

Online converter - videoconverter.com