Blink 182

Happy Holidays You Bastard Bass Tabs



More from Blink 182

Blink 182 Tabs
Blink 182 Chords
Blink 182 Bass
Blink 182 Lyrics




Verse
G--------------------------------|
D--------------------------------|
A-2-22222---------2-2222---------|
E---------2-22222--------2-22222-|

Pre-Chorus
G-----------------|
D-----------------|
A-----------------|
E-4-44444-0-00000-|

Chorus
G------------------------------------------------------------------------------|
D------------------------------------------------------------------------------|
A-2222---------------2222---------------2222---------------2222----------------|
E------2222-0---2-22------2222-00000000------2222-00000000------2222-0000-2222-|

Outro:
G-----------|
D-----------|
A-2-------2-|
E-----------|

Order:
Verse x1
Pre-Chorus x1
Chorus x1
Verse x1
Pre-Chorus x1
Chorus x1
Outro x1



Get this song at amazon.com      Ebay     Ringtones Ringtones  


Learn to play: Songwriting, Piano, Harmonica, Guitar
Also available at Muzikum: Blink 182 - Happy Holidays, You Bastard lyrics

Related Blink 182 Bass Tabs

Zulu bass
M+ms bass
Life's So Boring (instrumental) bass
Wirecked Him bass
The Grandpa Song bass
Up All Night bass
The Country Song bass
Feeling This bass
Romeo And Rebecca bass
Carousel Budha bass
A Letter To Elise bass
Even If She Falls bass
Sex With His Sister bass
All The Small Things(easy) bass
Action(feeling This) bass
Adam's Song Real Ver bass
Family Reunion(live) bass
Im Lost Without You bass
21 Days bass
Cacophony bass


Guitar Tabs









All tabs are property and copyright of their owners. All tabs provided for educational purposes only. Privacy Policy, DMCA