Blink 182

Happy Holidays U B****** Bass Tabs



More from Blink 182

Blink 182 Tabs
Blink 182 Chords
Blink 182 Bass
Blink 182 Lyrics



Verse
G|-----------------------------------------------------------------|
D|-----------------------------------------------------------------|
A|-2-2-2-2-2-2-2-2-----------------2-2-2-2-2-2-2-2-----------------|
E|-----------------2-2-2-2-2-2---------------------2-2-2-2-2-2-----|

Pre-Chorus
G|-----------------------------------------------------------------|
D|-----------------------------------------------------------------|
A|---------------------------------2-2-2-2-------------------------|
E|-4-4-4-4-4-4-----0-0-0-0-0-0-------------2-2-2-2-0---------2-2-2-|

Chorus
G|-----------------------------------------------------------------|
D|-----------------------------------------------------------------|
A|-2-2-2-2-------------------------2-2-2-2-------------------------|
E|---------2-2-2-2-0-0-0-0-0-0-0-0---------2-2-2-2-0-0-0-0-0-0-0-0-|

G|---------------------------------|
D|---------------------------------|
A|-2-2-2-2-------------------------|
E|---------2-2-2-2-0-0-0-0-2-2-2-2-|



Get this song at amazon.com      Ebay     Ringtones Ringtones  


Learn to play: Songwriting, Piano, Harmonica, Guitar
More Blink 182 lyrics available at Muzikum

Related Blink 182 Bass Tabs

Dicklips bass
Go bass
13 Miles bass
I Won't Be Home For Christmas bass
Boring bass
Don't Tell Me It's Over bass
Feeling This bass
Dumpweed bass
Fallen Interlude bass
Another Girl Another Planet bass
Cheshire Cat bass
Anthem part 21 bass
First Date bass
Ben Wah Balls bass
Satan Tune bass
Family Reunion(live) bass
Anthem Part 2 bass
First Date (live) bass
The Rock Show (easy) bass
M+ms bass


Guitar Tabs









All tabs are property and copyright of their owners. All tabs provided for educational purposes only. Privacy Policy, DMCA

Online converter - videoconverter.com