Blink 182

Grandpa Tabs



More from Blink 182

Blink 182 Tabs
Blink 182 Chords
Blink 182 Bass
Blink 182 Lyrics



BAND:BLINK182
SONG:GRANDPA
CD:TAKE OF YOUR PANTS AND JACKET (MARKS VERSION)
E-MAIL:MARKHOPPUSFAN182@YAHOO.COM

THIS TAB I GUARANTEE YOU IS 100% HERE IT IS.....(FINGER PICK IT)


(verse)
E:-2-0----------------------------------------------
B:--3-3-(x2)-3-3-5-2-2h3------------------------------
G:------------0-----2-------------------------------
D:-0-0-------------0--------------------------------
A:-----------0-0------------------------------------
E:--------------------------------------------------


(chorous)

E:-2-2-2-2------------------------------------------
B:--3-3-3---3-3-3-3---------------------------------
G:-----------0-0-0---------------------------------- (both X3)
D:-0-0-0--0-----------------------------------------
A:----------0-0-0-0---------------------------------
E:--------------------------------------------------

THEN

E:--------------------------------------------------
B:-2-2-2-2------------------------------------------
G:--2-2-2-2-----------------------------------------
D:-0-0-0-0------------------------------------------
A:--------------------------------------------------
E:--------------------------------------------------

END ON
|E:---|
|B:-3-|
|G:---|
|D:---|
|A:-0-|
|E:---|


THATS IT ALL I GOTTA SAY IS BLINK182 KICKS ALL OTHER BANDS ASSES!!!! *** YEAH!!!!

E-MAIL ME FOR ANY BLINK TAB YOU WANT, I KNOW EM ALL


Get this song at amazon.com      Ebay     Ringtones Ringtones  


Learn to play: Songwriting, Piano, Harmonica, Guitar
Also available at Muzikum: Blink 182 - Grandpa lyrics

Related Blink 182 Tabs

Chesire Cat tabs
Toms Song tabs
Don't Tell Me That Its Over tabs
Rollercoaster tabs
Blow Job Song tabs
Cheshire Cat Album tabs
Dammit(done Right) tabs
M And Ms tabs
Track 15 tabs
I Wont Be Home For Christmas tabs
Mother's Day tabs
Fuk A Dog In The Ass tabs
Waggy tabs
Sumo Song tabs
Dont Leave Me tabs
Mms tabs
Pathetic Intro tabs
Mark Tom And Travis Show tabs
Shit Piss tabs
Cacophony Intro tabs


Guitar Tabs









All tabs are property and copyright of their owners. All tabs provided for educational purposes only. Privacy Policy, DMCA