Blink 182

Grampa Is An Asshole Tabs



More from Blink 182

Blink 182 Tabs
Blink 182 Chords
Blink 182 Bass
Blink 182 Lyrics

-------------------------------------------------------------------------------
                       GRAMPA IS AN ASSHOLE - Blink 182
-------------------------------------------------------------------------------

By: Coodaddy98@aol.com-Jackson Hataway

/=slide but don't pluck the note you slide to or it screws the song up

Intro and verse "When grampa fucked you..."
e|--2---0---2---0------------------------------------------------------------|
B|----3---3---3---3-3---3/5--------------------------------------------------|
G|--------------------0-----6---6--------------------------------------------|
D|--0---0---0---0-------------7---7------------------------------------------|
A|--------------------------0---0--------------------------------------------|
E|------------------3---3----------------------------------------------------|

Chorus "He seems like a..."
e|---------------------------------------------------------------------------|
B|--3---3---3---3------------------------------------------------------------|
G|----0---0---0---0----------------------------------------------------------|
D|------------------6---6---6---6--------------------------------------------|
A|--------------------7---7---7---7------------------------------------------|
E|--3---3---3---3---0---0---0---0--------------------------------------------|

There are a couple tabs out for this, but none of them nail the slide that is in
the intro and verse.  This should be correct.  Enjoy. 

===============================================================================
Get this song at amazon.com      Ebay     Ringtones Ringtones  


Learn to play: Songwriting, Piano, Harmonica, Guitar
Also available at Muzikum: Blink 182 - Grampa Is An Asshole lyrics

Related Blink 182 Tabs

I Miss You tabs
Rollercoaster tabs
Rock Show tabs
Pathetic Live tabs
Girl Next Door tabs
I Wont Be Home For Christmas tabs
Adams Song Complete tabs
B J tabs
Feelin This tabs
Cacophony Intro tabs
Mothers Day tabs
Depends tabs
Peggy Sue tabs
Story Of A Lonley Guy tabs
Peggy Sue Live Solo tabs
Secret Track tabs
A Letter To Elise tabs
Boring tabs
Wendy Clear tabs
M&m's tabs


Guitar Tabs









All tabs are property and copyright of their owners. All tabs provided for educational purposes only. Privacy Policy, DMCA