Blink 182

Going Away To College Tabs



More from Blink 182

Blink 182 Tabs
Blink 182 Chords
Blink 182 Bass
Blink 182 Lyrics

Title:Going Away to College (Live)

Band:Blink 182





Tuning: Standard(E,A,D,G,B,e)



Legend:

~ = Let Ring

* = Palm Mute

x = Muted string









CAPO 2!

In tab, capo is zero. Therefore, all notes on

the second fret in the tab are the capo/open string.







INTRO



Intro Pt.1 (Clean)

e|-------------------------------------|-------------------------------------

B|-------------------------------------|-------------------------------------

G|--6-6-6666-66-6666--6-6-6666-66-6666-|-6-6-6664-44-4444--6-6-6664-44-4444--

D|--7-7-7779-99-9999--7-7-7779-99-9999-|-2-2-2222-22-2222--2-2-2222-22-2222--

A|--2-2-2222-22-2222--2-2-2222-22-2222-|-2-2-2222-22-2222--2-2-2222-22-2222--

E|--2-2-2222-22-2222--2-2-2222-22-2222-|-------------------------------------



-------------------------------------|------------------------------||

-------------------------------------|------------------------------||

--6-6-6666-66-6666--6-6-6666-66-6666-|-6-6-6664-44-4444--6-6-6664~--||

--7-7-7779-99-9999--7-7-7779-99-9999-|-2-2-2222-22-2222--2-2-2222~--||

--2-2-2222-22-2222--2-2-2222-22-2222-|-2-2-2222-22-2222--2-2-2222~--||

--2-2-2222-22-2222--2-2-2222-22-2222-|------------------------------||



Intro Pt.2 (Dist.)

e|--------------------------------------------------------------------||

B|--------------------------------------------------------------------||

G|---------------8---------------8---------------8--------------------||

D|-------9---------------9---------------9---------------11-------11--||

A|----------------------------------7-7-----7-7-----9-9------9-9------||

E|--7-7-----7-7-----7-7-----7-7---------------------------------------||



Play Intro Pt.2 2x



VERSE 1



Verse Pt.1 (Dist.)

e|-------|-------|-------|-------||

B|-------|-------|-------|-------||

G|-------|-------|-------|-------||

D|--9~---|-------|-------|-------||

A|--9~---|-------|-------|-------||

E|--7~---|-------|-------|-------||



Verse Pt.2 (Dist.)

e|------------------------------------------------||

B|------------------------------------------------||

G|---------------9-999999--11--11-11-11-11-11-11--||

D|--9--9-9-9999--9-999999--11--11-11-11-11-11-11--||

A|--9--9-9-9999--7-777777--9---9--9--9--9--9--9---||

E|--7--7-7-7777-----------------------------------||



Play Verse Pt.2 2x



INTERLUDE

Play Intro Pt.2 2x



VERSE 2

Play Verse Pt.1

Play Verse Pt.2 2x



CHORUS



Chorus Pt.1 (Dist.)

e|-----------------------------------------||

B|-----------------------------------------||

G|-8-888888--9-999999----------------------||

D|-x-xxxxxx--x-xxxxxx--9-999999--4-444444--||

A|-6-666666--7-777777--9-999999--4-444444--||

E|---------------------7-777777--2-222222--||



Play Chorus Pt.1 3x



Chorus Pt.2 (Dist.)

e|------------------------------------||

B|------------------------------------||

G|-8-888888--9-999999-----------------||

D|-x-xxxxxx--x-xxxxxx--9-999999--4~~--||

A|-6-666666--7-777777--9-999999--4~~--||

E|---------------------7-777777--2~~--||



INTERLUDE

Play Intro Pt.2 2x



VERSE 3



Verse Pt.3 (Dist.)

e|--------------------------------------------||

B|--------------------------------------------||

G|-----8----8----8----8----8----8----9--------||

D|-----------------------------------------9--||

A|----------------------77---77---99---99-----||

E|--77---77---77---77-------------------------||

** ** ** ** ** ** ** **



Play Verse Pt.3 2x

Play Verse Pt.2 2x



CHORUS

Play Chorus Pt.1 3x

Play Chorus Pt.2



INTERLUDE 2



Interlude pt.1 (Clean)

e|-------------------------------------|-------------------------------------

B|-------------------------------------|-------------------------------------

G|--6-6-6666-66-6666--6-6-6666-66-6666-|-6-6-6664-44-4444--6-6-6664-44-4444--

D|--7-7-7779-99-9999--7-7-7779-99-9999-|-2-2-2222-22-2222--2-2-2222-22-2222--

A|--2-2-2222-22-2222--2-2-2222-22-2222-|-2-2-2222-22-2222--2-2-2222-22-2222--

E|--2-2-2222-22-2222--2-2-2222-22-2222-|-------------------------------------



-------------------------------------|-------------------------------------||

-------------------------------------|-------------------------------------||

--6-6-6666-66-6666--6-6-6666-66-6666-|-6-6-6664-44-4444--6-6-6664-44-4444--||

--7-7-7779-99-9999--7-7-7779-99-9999-|-2-2-2222-22-2222--2-2-2222-22-2222--||

--2-2-2222-22-2222--2-2-2222-22-2222-|-2-2-2222-22-2222--2-2-2222-22-2222--||

--2-2-2222-22-2222--2-2-2222-22-2222-|-------------------------------------||



CHORUS

Play Chorus Pt.1 3x

Play Chorus Pt.2



End on (Dist.):

e|----|

B|----|

G|----|

D|-9~-|

A|-9~-|

E|-7~-|

Get this song at amazon.com      Ebay     Ringtones Ringtones  


Learn to play: Songwriting, Piano, Harmonica, Guitar
Also available at Muzikum: Blink 182 - Going Away To College lyrics

Related Blink 182 Tabs

Point Of View tabs
Adams Song tabs
Cereal tabs
All Of This tabs
Dicklips (live) tabs
Here\'s Your Letter tabs
F A Dog tabs
Happy Holidays You Bastards tabs
Voyeur tabs
Dumpweed Intro tabs
Family Reunion tabs
Roller Coaster tabs
Dead Mans Cure tabs
All The Small Things (live) tabs
The Family Next Door tabs
Peggy Sue Live Solo tabs
Toast And Bananas tabs
Adams Song(sweet) tabs
Obvious tabs
Party Song, The tabs


Guitar Tabs









All tabs are property and copyright of their owners. All tabs provided for educational purposes only. Privacy Policy, DMCA