Blink 182

Going Away To College Bass Tabs



More from Blink 182

Blink 182 Tabs
Blink 182 Chords
Blink 182 Bass
Blink 182 Lyrics

Date: Wed, 4 Oct 2000 20:22:18 -0400
From: John  (by way of cal woods)
Subject: b/blink_182/going_away_to_college.btab

Artist: Blink 182
Song: Going Away to College
Album: Enema of the State
Transcribed by: Kevin S. Elliker (elliker@odu.org)

Chorus:
E -----1----3-----1----3-----1----3-----1----3 (hold out on 2nd and 3rd times)
A --0----3-----0----3-----0----3-----0----3---
D ------------------------------------------------
G ------------------------------------------------

Verses:
E --------1--3-------1--3-------1--3-------1--3
A --3-----------3----------3-----------3---------
D -------------------------------------------------
G -------------------------------------------------

Bridge: (guitar plays chord sequence) (bass; let chords hold out)
E 1---------------------------1
A 3-------------3------------3
D --------------5--------------
G -----------------------------

Sequenced Order of Song:
Verse #1
Verse #2
Chorus
Verse #3
Chorus (hold on “beautiful”)
Bridge
Chorus (hold on “beautiful”)
Get this song at amazon.com      Ebay     Ringtones Ringtones  


Learn to play: Songwriting, Piano, Harmonica, Guitar
Also available at Muzikum: Blink 182 - Going Away To College lyrics

Related Blink 182 Bass Tabs

Romeo And Rebecca bass
Blowjob Song bass
MH 4.18.2011 bass
What\'s My Age Again bass
Kaleidoscope bass
The Party Song bass
Degenerate bass
Does My Breath Smell bass
Chesire Cat bass
Online Songs bass
Untitled bass
Happy Holidays U B****** bass
Fallen Interlude bass
Man Overboard Intro(easy Way) bass
Man Overboard ( From The Tab Book) bass
Marlboro Man bass
Give Me One Good Reason bass
All Of This bass
M + Ms 1000% bass
G O bass


Guitar Tabs









All tabs are property and copyright of their owners. All tabs provided for educational purposes only. Privacy Policy, DMCA