Blink 182

Give Me One Good Reason Live Tabs



More from Blink 182

Blink 182 Tabs
Blink 182 Chords
Blink 182 Bass
Blink 182 Lyrics

Blink 182
"Give Me One Good Reason" Live,but this is alos the exact same way as played
on the album
Take Off Your Pants and Jacket


Tuning: down 1 and a half steps
Db Gb B E Ab Db

i saw blink live in chicago and this is how it was played,
i'm 100% sure of this


e-mail: trecool80@aol.com

Intro:
--------------------------------------------------------------------------|
--------------------------------------------------------------------------|
------4---4-0-----0-----0-----4---4-0-----0-----0-----0-----0-----0-----0-|
----5----5------7-----7-----5----5------7-----7-----9-----9-----5-----5---|
--5-----5-----5-----5-----5-----5-----5-----5-----7-----7-----3-----3-----|
--------------------------------------------------------------------------|

----------------------------------|
----------------------------------|
-----0-----0-----0----------------|
---9-----9-----7------------------|
-7-----7-----5---------5----------| harmonics
----------------------------------|


G D
Mom and dad they quite don't understand it
G D
all the kids they laugh as if they planned it
high E C
Why do girls wanna pierce their nose
high E D
and walk around in torn pantyhose?

Riff
-----------------------|
-----------------------|
----------4------------|
-5-5--5-5---5-5--4h5-5-|
-5-5--5-5---5-5--------|
-3-3--3-3---3-3--------|
p.m.
oh yeah!

G D
I like the ones who say they listen to the punk rock
G D
i like the kids who fight against how they were brought up
high E C
they hate the trends and think it's fucked to care.
high E D
It's cool when they piss people off with what they wear.

-Riff

G B D
So give me one good reason
G B D C
why we need to be like them

B D
Kids will have fun and offend
G B D C
they don't want to and don't fit in.

G D
Hate the jocks, the preps, the hippie fuckin scum bags.
G D
Heavy-metalers with their awful pussy hair bands.
high E C
Couting seconds until we can get away
high E D
ditching school almost every single day.

-Riff
Oh yeah!

G B D
So give me one good reason
G B D C
why we need to be like them
B D
Kids will have fun and offend
G B D C
they don't want to and don't fit in.

Bridge - twice
-------------------------------------------------------------------------------|
-------------------------------------------------------------------------------|
-12--14--16--17--16--12----12---------12--14--16--17--16--13--14--16--13-13----|
--x---x---x---x---x---x-12--x-12-12----x---x---x---x---x---x---x---x---x--x----|
-10--12--14--15--14--10--x-10--x--x---10--12--14--15--14--10--12--14--10-10----|
------------------------10----10-10--------------------------------------------|


G B D
give me one good reason
G B D C
why we need to be like them
B D
Kids will have fun and offend
G B D C
they don't want to and don't fit in.



Get this song at amazon.com      Ebay     Ringtones Ringtones  


Learn to play: Songwriting, Piano, Harmonica, Guitar
Also available at Muzikum: Blink 182 - Give Me One Good Reason Live lyrics

Related Blink 182 Tabs

I Miss You Live tabs
Untitled tabs
Fentoozler tabs
Pathetic tabs
Untitled Live tabs
Online Songs tabs
Zulu tabs
I'm Lost Without You(acoustic Chords) tabs
Marks Boyfriend tabs
Adams Song Complete tabs
Blew Job tabs
Obvious tabs
No It Isn't(plus-44) tabs
Give Me One Good Reason tabs
Touchdown Boy Intro tabs
Whats My Age Again Perfect tabs
Carousel tabs
M+ms tabs
All The Small Things (live) tabs
Online Songs Solo tabs


Guitar Tabs









All tabs are property and copyright of their owners. All tabs provided for educational purposes only. Privacy Policy, DMCA