Blink 182

Ghost On The Dance Floor Bass Tabs



More from Blink 182

Blink 182 Tabs
Blink 182 Chords
Blink 182 Bass
Blink 182 Lyrics

Intro

G |--------------------------------|
D |--------------------------------|
A |--2--4--2--9--7--9--7--9--------|
E |--------------------------------|


Verse

G |----------------------------------|
D |----------------------------------|
A |--2-------------------------------| x2
E |------0---4--2--0-----------------|

Verse pt 2

Starts at "its like the universe has left me..."

G |------------------------------------------------|
D |------------------------------------------------|
A |---2--4--11--9--7--------2--4-------------------|
E |------------------------------------4--2--0-----|

Chorus

G |--------------------------------|
D |--------------------------------|
A |----2---4---7---9---------------|
E |--------------------------------|

2nd verse

G |-------------------------------------------------------|
D |-------------------------------------------------------|
A |--2-----------------7---------2----4---11---7----------|
E |------0--4--2--0---------------------------------------|
AND SO ON AND SO ON IF YOU LISTEN TO SONG YOU WILL GET ORDER
Get this song at amazon.com      Ebay     Ringtones Ringtones  


Learn to play: Songwriting, Piano, Harmonica, Guitar
More Blink 182 lyrics available at Muzikum

Related Blink 182 Bass Tabs

Apple Shampoo bass
Down bass
Happy Holidays, You Basterd bass
Obvious bass
Wendy Clear bass
The Girl Next Door bass
Adam\'s Song bass
Anthem Part Two bass
Anthem part 21 bass
Feels So Good bass
Easy Target bass
G O bass
The Rockshow bass
Strings bass
D***it bass
Reebok Commercial bass
Degenerate bass
All The Small Things(corrected) bass
Girl Next Door bass
Whats My Age Again Live bass


Guitar Tabs









All tabs are property and copyright of their owners. All tabs provided for educational purposes only. Privacy Policy, DMCA

Online converter - videoconverter.com