Blink 182

G O Bass Tabs



More from Blink 182

Blink 182 Tabs
Blink 182 Chords
Blink 182 Bass
Blink 182 Lyrics



Blink 182
Go
tabbed by danny182

this song is really good and fun to play, please rate this tab! ive
seen a video of blink playing this live and im sure this is how its played now..

Intro
G|-----------------------------------|
D|-----------------------------------|
A|-3333333333333333/8888888888888888-|x2
E|-----------------------------------|

Verse 1
G|-----------------------------------|
D|-----------------------------------|
A|-3333333333333333------------------|x2
E|------------------1111111111111111-|

Chorus
G|--------------------|
D|--------2-----------|
A|-0000-03-3----------|x2
E|-----------11111111-|

Pre Verse
G|-----------------------------------|
D|-----------------------------------|
A|-3333333333333333/8888888888888888-|x2
E|-----------------------------------|

Verse 2
G|-----------------------------------|
D|-----------------------------------|
A|-3333333333333333------------------|x2
E|------------------1111111111111111-|

Chorus
G|--------------------|
D|--------2-----------|
A|-0000-03-3----------|x2
E|-----------11111111-|

Bridge
G|-----------------------------------|
D|-----------------------------------|
A|-3333333333333333-8888888888888888-|x2
E|-----------------------------------|

Verse 3(bass solo/no guitar)
G|-----------------------------------|
D|-----------------------------------|
A|-3333333333333333------------------|x2
E|------------------1111111111111111-|

Pre-Chorus mark singing solo.
G|---|
D|---|
A|---|x1
E|-5-|

Chorus
G|--------------------|
D|--------2-----------|
A|-0000-03-3----------|x2
E|-----------11111111-|

Outro
G|-----------------------------------|
D|-----------------------------------|
A|-3333333333333333-8888888888888888-|x3
E|-----------------------------------|

G|----------------------|
D|----------------------|
A|-3333333333333333/8~~-|x1
E|----------------------|

thats it! please rate this tab! thanks!

Taken from The BassMasta -- http://www.tabs-database.com



Get this song at amazon.com      Ebay     Ringtones Ringtones  


Learn to play: Songwriting, Piano, Harmonica, Guitar
More Blink 182 lyrics available at Muzikum

Related Blink 182 Bass Tabs

21 Days bass
Every Time I Look For You bass
Cacophony bass
The Rockshow bass
M And Ms bass
Fentoozler bass
1st Date bass
Online Song bass
Wont Be Home For Christmas bass
Depends bass
Josie! 100% Correct bass
Man Overboard bass
Online Songs bass
I'm Lost Without You bass
Whats My Age Again Live bass
Album bass
First Date W/ Lyrics bass
Waggy bass
Always (perfect) bass
Another Girl Another Planet bass


Guitar Tabs









All tabs are property and copyright of their owners. All tabs provided for educational purposes only. Privacy Policy, DMCA