Blink 182

First Date (live) Tabs



More from Blink 182

Blink 182 Tabs
Blink 182 Chords
Blink 182 Bass
Blink 182 Lyrics

tabs-database.com[http://www.tabs-database.com.com/]
Artist - Blink-182

Song - First Date (Live)

Tuning - Standard EADGBe



You have to listen the song to figure it out



Intro

E -0-----------------------------0---------------------------

B ----1-----1-----3--1-----1--------1-----1-----3--1-----0---

G -------0-----0--------0-----0--------0-----0--------0------

D -----------------------------------------------------------

A -----------------------------------------------------------

E -----------------------------------------------------------



E -0-----------------------------0----------------------------

B ----1-----1-----3--1-----1--------1-----1-----3--1-----0--1-

G -------0-----0--------0-----0--------0-----0--------0-------

D ------------------------------------------------------------

A ------------------------------------------------------------

E ------------------------------------------------------------



Verse

E ------------------------------------------------------------

B ------------------------------------------------------------

G -5-5-5-5-5-5-5-5-5-5-5-5-5-5-5-5-5-5-5-5-5-5-5-5-5-5-5-5-5-5

D ------------------------------------------------------------

A ------------------------------------------------------------

E ------------------------------------------------------------

Pm . . . . . . . . . . . . . . . . . . . . . . . . . . . . . .



Chorus

E ------------------------------------------------------------

B ------------------------------------------------------------

G ------------------------------------------------------------ x2

D -5-5-5--5-5-5-----------------------------------------------

A -3-3-3--2-2-2--7-7-7-7--3-3-3--5-5-5------------------------

E ---------------5-5-5-5--1-1-1--3-3-3------------------------



E ------------------------------------------------------------

B ------------------------------------------------------------

G ------------------------------------------------------------ x2

D -5-5-5-5-5-5-5--5-5-5-5-5-5-5-------------------------------

A -3-3-3-3-3-3-3--2-2-2-2-2-2-2--7-7-7-7-7-7-7--3-3-3--5-5-5--

E -------------------------------5-5-5-5-5-5-5--1-1-1--3-3-3--



Play intro



Play verse



Play chorus



Solo



E -------------------------------------------------------------

B -------------------------------------------------------------

G -5-5-5-5-5-5-5-5--------------------------------------------- x2

D -5-5-5-5-5-5-5-5—-2-2-2-2-2-2-2--3-3-3-3-3-3-3--5-5-5-5-5-5-5

A -3-3-3-3-3-3-3-3--2-2-2-2-2-2-2--3-3-3-3-3-3-3--5-5-5-5-5-5-5

E ------------------0-0-0-0-0-0-0--1-1-1-1-1-1-1--3-3-3-3-3-3-3

Pm . . . . . . . . . . . . . . . . . . .. . . . . . . . . . . .



E -------------------------------------------------------------

B -------------------------------------------------------------

G -5-5-5-5-5-5-5--9-9-9-9-9-5-5-1010101010-5-5--7-7-7-7-7-7-7—- x4

D -x-x-x-x-x-x-x--x-x-x-x-x-x-x--x-x-x-x-x-x-x--x-x-x-x-x-x-x--

A -3-3-3-3-3-3-3--7-7-7-7-7-3-3--8-8-8-8-8-3-3--5-5-5-5-5-5-5--

E -------------------------------------------------------------



Play chorus



Play intro



That’s it have fun

Added by tabs-database.com.com and our distinguished partners
Get this song at amazon.com      Ebay     Ringtones Ringtones  


Learn to play: Songwriting, Piano, Harmonica, Guitar
More Blink 182 lyrics available at Muzikum

Related Blink 182 Tabs

Country Song tabs
Dammit(done Right) tabs
Time To Break Up tabs
When You F*cked Grandpa (easy For Beinners) tabs
Palmadillo tabs
Lucky tabs
Happy Holidays You Bastard tabs
Time tabs
Feeling This Live tabs
It's Obvious tabs
Mother's Day tabs
Time To Wake Up Intro tabs
Dead Man's Curve tabs
Action tabs
Peggy Sue tabs
Adams Song Live2 tabs
Take Off Your Pants And Jacket (album) tabs
Mms tabs
Reckless Abandon Solo tabs
Reebok Commercial tabs


Guitar Tabs









All tabs are property and copyright of their owners. All tabs provided for educational purposes only. Privacy Policy, DMCA