Blink 182

First Date (live) Guitar Tab Tabs



More from Blink 182

Blink 182 Tabs
Blink 182 Chords
Blink 182 Bass
Blink 182 Lyrics




(Intro)

e-0------0-------------------------------------------------0------0-
b---1------1------3-1-----3-1-------3-1-----3-1----------1------1---
g-----0------0---------0------0----------0-------0----0------0------
d------------------------------------------------------------------- 2x
a-------------------------------------------------------------------
e-------------------------------------------------------------------

(Verse)
palm mute this part

e----------------------------------------------------------
b----------------------------------------------------------
g----------------------------------------------------------
d-5-5-5--5-5-5---5-5-5---5-5-5----------------------------- 4x
a-3-3-3--3-3-3---3-3-3---3-3-3--5-5-5--5-5-5--3-3-3--3-3-3-
e-------------------------------3-3-3--3-3-3--1-1-1--1-1-1-

(Chorus)pt.1

e-------------------------------------------
b-------------------------------------------
g-------------------------------------------
d-5-5-5-----4-4-4---------------------------
a-3-3-3-----2-2-2------7-7-7-7------3-3-5-5-
e----------------------5-5-5-5------1-1-3-3-

pt.2

e-------------------------------------
b-------------------------------------
g-------------------------------------
d-555-555--444-444-------------------- 2x
a-333-333--222-222--777-777--333-555--
e-------------------555-555--111-333--

(intro)

e-0------0-------------------------------------------------0------0-
b---1------1------3-1-----3-1-------3-1-----3-1----------1------1---
g-----0------0---------0------0----------0-------0----0------0------
d------------------------------------------------------------------- 2x
a-------------------------------------------------------------------
e-------------------------------------------------------------------

(Verse)
palm mute this part

e----------------------------------------------------------
b----------------------------------------------------------
g----------------------------------------------------------
d-5-5-5--5-5-5---5-5-5---5-5-5----------------------------- 4x
a-3-3-3--3-3-3---3-3-3---3-3-3--5-5-5--5-5-5--3-3-3--3-3-3-
e-------------------------------3-3-3--3-3-3--1-1-1--1-1-1-

(Chorus)pt.1

e-------------------------------------------
b-------------------------------------------
g-------------------------------------------
d-5-5-5-----4-4-4---------------------------
a-3-3-3-----2-2-2------7-7-7-7------3-3-5-5-
e----------------------5-5-5-5------1-1-3-3-

pt.2

e-------------------------------------
b-------------------------------------
g-------------------------------------
d-555-555--444-444-------------------- 2x
a-333-333--222-222--777-777--333-555--
e-------------------555-555--111-333--

(interlude)pt.1

palm mute here

e-------------------------------------
b-------------------------------------
g-------------------------------------
d----------00000000-22222222-33333333- 2x
a-33333333----------------------------
e-------------------------------------

pt.2

e----------------------------------------
b----------------------------------------
g-----------4444------5555------77777777-
d-55555555--2222--55--3333--55--55555555- 4x
a-33333333--------33--------33-----------
e----------------------------------------

(Chorus)pt.1

e-------------------------------------------
b-------------------------------------------
g-------------------------------------------
d-5-5-5-----4-4-4--------------------------- 2x
a-3-3-3-----2-2-2------7-7-7-7------3-3-5-5-
e----------------------5-5-5-5------1-1-3-3-

pt.2

e-------------------------------------
b-------------------------------------
g-------------------------------------
d-555-555--444-444-------------------- 2x
a-333-333--222-222--777-777--333-555--
e-------------------555-555--111-333--

(intro)

e-0------0-------------------------------------------------0------0-
b---1------1------3-1-----3-1-------3-1-----3-1----------1------1---
g-----0------0---------0------0----------0-------0----0------0------
d------------------------------------------------------------------- 2x
a-------------------------------------------------------------------
e-------------------------------------------------------------------

e--------
b--------
g--------
d-5~~~~~-
a-3~~~~~-
e--------



Get this song at amazon.com      Ebay     Ringtones Ringtones  


Learn to play: Songwriting, Piano, Harmonica, Guitar
More Blink 182 lyrics available at Muzikum

Related Blink 182 Tabs

Tv tabs
Asthenia tabs
F A Dog tabs
Whats My Age Again Live tabs
Adams Song Piano tabs
Man Overboard tabs
Stockholm Syndrome tabs
Mms tabs
Adams Song Live tabs
Palmadillo tabs
Im Kicking tabs
Untitled tabs
Man Overboard(right) tabs
When You Fucked Grandpa tabs
The Fallen Interlude tabs
Im Lost Without You tabs
The Party Song tabs
I Won't Be Home For Christmas tabs
The Girl Next Door tabs
Just About Done tabs


Guitar Tabs









All tabs are property and copyright of their owners. All tabs provided for educational purposes only. Privacy Policy, DMCA