Blink 182

First Date Bass Tabs



More from Blink 182

Blink 182 Tabs
Blink 182 Chords
Blink 182 Bass
Blink 182 Lyrics


(Drum intro)

Bass Fig 1:

-------------------------------------------------
-------------------------------------------------
-3-3-3-3-3-3-3-3-5-5-5-5-5-5-5-5-8-8-8-8-8-8-8-8-
-------------------------------------------------

-------------------------------------------------
-------------------------------------------------
-10-10-10-10-10-10-10-10-------------------------
-------------------------------------------------

Bass Fig 2:

-------------------------------------------------
-------------------------------------------------
-3-3-3-3-3-3-3-3-3-3-3-3-3-3-3-3-----------------
--------------------------------3-3-3-3-3-3-3-3--

-------------------------------------------------
-------------------------------------------------
-------------------------------------------------
-1-1-1-1-1-1-1-1---------------------------------

(Now do Bass Fig 2 3 more times).

Bass Fig 3:

-------------------------------------------------
-------------------------------------------------
-3-3-3-2-2-2-0-0-0-0-0-0-0-0-1-1-1-3-3-3---------
-------------------------------------------------

(Repeat Bass Fig 3)

Bass Fig 4:

--------------------------------------------------
---------------------------------------------------3-3-3-3-3-3-3-3-2-2-2-2-2-2-2-2-0-0-0-0-0-0-0-0-
-------------------------------------------------

-------------------------------------------------
-------------------------------------------------
-1-1-1-3-3-3-------------------------------------
-------------------------------------------------

(Repeat Bass Fig 4)

(Bass Fig 1 x2)

(Bass Fig 2 x4)

(Bass Fig 3 x 2)

(Bass Fig 4 x2)

Guitar Solo:

8 beat pause:

-------------------------------------------------
-------------------------------------------------
-3-3-3-3-3-3-3-----------------------------------
---------------0-0-0-0-0-0-0-1-1-1-1-1-1-1-3-3-3-3
-------------------------------------------------

-------------------------------------------------
-------------------------------------------------
-------------------------------------------------
-3-3-3-------------------------------------------

-------------------------------------------------
-------------------------------------------------
-3-3-3-3-3-3-3-3---------------------------------
-------------------------------------------------

Guitar Solo Part 2:

-------------------------------------------------
-------------------------------------------------
-------------------------------------------------
-0-0-0-0-0-0-0-1-1-1-1-1-1-1-3-3-3-3-3-3-3-------

(Repeat Guitar Solo Part 2 2 more times).

(Bass Fig 3 x 2)

(Bass Fig 4 x 4).

Let last note ring.

K hope thats clear enough , Thanx, 
Evo!!

Get this song at amazon.com      Ebay     Ringtones Ringtones  


Learn to play: Songwriting, Piano, Harmonica, Guitar
Also available at Muzikum: Blink 182 - First Date lyrics

Related Blink 182 Bass Tabs

Family Reuinion bass
Longest Line bass
Asthenia(perfect) bass
Family Reunion bass
Wendy Clear bass
Easy Target bass
First Date W/ Lyrics bass
Voyeur bass
Carousel (bridge) bass
Lemmings bass
Don't Tell Me It's Over bass
Girl Next Door bass
Whats My Age Agian bass
Wrecked Him bass
Josie (with Lyrics) bass
Love Is Dangerous bass
Wasting Time bass
Carousel bass
A New Hope bass
Marlboro Man bass


Guitar Tabs









All tabs are property and copyright of their owners. All tabs provided for educational purposes only. Privacy Policy, DMCA