Blink 182

Feeling This Tabs



More from Blink 182

Blink 182 Tabs
Blink 182 Chords
Blink 182 Bass
Blink 182 Lyrics

Band: Blink 182
Album: Self titled
Song: Feeling This
Tuning: Standard Tuning
Guitarist: Tom Delonge
Tabber: Nick C.

Legend:
PM... = Palm mute
/ = Slide Note

INTRO
E|-------------------------------------------------|
B|-------------------------------------------------|
G|--9-9-9-9--9-9--9-13--9-11/9--9-9--9-9--9-13--9--|
D|--x-x-x-x--x-x--x--x--x--x-x--x-x--x-x--x--x--x--|
A|--7-7-7-7--7-7--7/11--7--9/7--7-7--7-7--7/11--7--|
E|-------------0--------0--------------0--------0--|

VERSE
E|--------------------------|
B|--------------------------|
G|--9-9-9-9--9-9--9-13--9---|
D|--x-x-x-x--x-x--x--x--x---|
A|--7-7-7-7--7-7--7/11--7---|
E|-------------0--------0---|

CHORUS
E|---------------------|
B|---------------------|
G|---------------------|
D|--2-----------2------|
A|--2--Rest-----2-Rest-|
E|--0-----------0------|

BETWEEN-VERSE RIFF
E|-------------------------------------------------------|
B|-------------------------------------------------------|
G|--9-9--9--9--9-11-11-11-11--13-13--13-13-14-14--14-14--|
D|--x-x--x--x--x--x--x--x--x---x--x---x--x--x--x---x--x--|
A|--7-7--7--7--7/-9--9--9--9/-11-11--11-11/12-12--12-12--|
E|-------------------------------------------------------|

END CHORUS PART 1
Guitar 1
E|----------------------------------|
B|----------------------------------|
G|----------------------------------|
D|------6---6-----------------------|
A|--7-7---7---7-7-7--7-7-7-7-9-9-9--|
E|----------------------------------|
PM . . . . . . . . . . . . . . .

Guitar 2
E|-------------------------------------------------------------------|
B|-------------------------------------------------------------------|
G|-------------------------------------------------------------------|
D|--9-9-9-9-9-9-9-9-----------------6-6-6-6-6-6-6-6------------------|
A|--7-7-7-7-7-7-7-7-9-9-9-9-9-9-9-9-4-4-4-4-4-4-4-4-7-7-7-7-7-7-7-7--|
E|------------------7-7-7-7-7-7-7-7-----------------5-5-5-5-5-5-5-5--|

END CHORUS PART 2
E|-------------------------------------------------------------------|
B|-------------------------------------------------------------------|
G|--9-9-9-9-9-9-9-9-----------------6-6-6-6-6-6-6-6------------------|
D|--9-9-9-9-9-9-9-9-9-9-9-9-9-9-9-9-6-6-6-6-6-6-6-6-7-7-7-7-7-7-7-7--|
A|--7-7-7-7-7-7-7-7-9-9-9-9-9-9-9-9-4-4-4-4-4-4-4-4-7-7-7-7-7-7-7-7--|
E|------------------7-7-7-7-7-7-7-7-----------------5-5-5-5-5-5-5-5--|

ORDER
INTRO
VERSE
CHORUS
BETWEEN-VERSE RIFF
VERSE
CHORUS
END CHORUS PART 1
END CHORUS PART 2
Get this song at amazon.com      Ebay     Ringtones Ringtones  


Learn to play: Songwriting, Piano, Harmonica, Guitar
Also available at Muzikum: Blink 182 - Feeling this lyrics

Related Blink 182 Tabs

Party Song tabs
Dumpweed tabs
Grandpa tabs
Anthem Part Ii tabs
Carousel Live tabs
Rich Lips tabs
Dead Mans Cure tabs
Lifes So Boring tabs
Rock Show tabs
Peggy Sue tabs
Give Me One Good Reason Live tabs
Shut Up tabs
Dick Lips tabs
Cheshire Cat Album tabs
The Longest Line tabs
Pathetic Live tabs
Tv tabs
Degenerate tabs
Everytime I Look For You tabs
The Longest Line Solo tabs


Guitar Tabs









All tabs are property and copyright of their owners. All tabs provided for educational purposes only. Privacy Policy, DMCA

Online converter - videoconverter.com