Blink 182

Everytime I Look For You Tabs



More from Blink 182

Blink 182 Tabs
Blink 182 Chords
Blink 182 Bass
Blink 182 Lyrics

Blink 182
Everytime I Look For You
Take Off Your Pants & Jacket
very noice song... so i decided to tab it and im sure it's 100% correct. tom recorded
over himself a few times so i'll give you both parts
standard tuning (EBGDAD)
----------------------------------------------------------------------------
intro
E|---------------------|
B|---------------------|
G|--4-44--4-44--4--44--|
D|--x-xx--x-xx--x--xx--|
A|--2-22--2-22--2--22--| (x4)
E|---------------------|
verse
E|---------------------|
B|---------------------|
G|--4-44--4-44--4--44--|
D|--x-xx--x-xx--x--xx--|
A|--2-22--2-22--2--22--| (x4)
E|---------------------|
E|------|
B|------|
G|--4~--|
D|--x---|
A|--2~--| (x1)
E|------|
break... then this
E|---------------------------------|
B|--4----5-4----5-4----5-4----2-4--|
G|----4-------4------4------4------|
D|---------------------------------|
A|---------------------------------| (x1)
E|---------------------------------|
E|-----------------------------------|
B|-----5-4----5-4----5-4----2-4------|
G|--4-------4------4------4------4~--|
D|-----------------------------------|
A|-----------------------------------| (x1)
E|-----------------------------------|
(the alternate part that tom plays)
E|----------------------------------------------|
B|----------------------------------------------|
G|--4-444444-11-111111111111-9-999999-6-666666--|
D|--x-xxxxxx--x--x-x-x-x-x-x-x-xxxxxx-x-xxxxxx--|
A|--2-222222--9--9-9-9-9-9-9-7-777777-4-444444--| (x2)
E|----------------------------------------------|
E|------|
B|------|
G|--4~--|
D|--x---|
A|--2~--| (x1)
E|------|
another break... then
E|--------------------------------|
B|-------2-4----2-4----2-4--------|
G|-----4------4------4------4--4--|
D|--------------------------------|
A|--2-----------------------------| (x2)
E|--------------------------------|
chorus
E|------------------------------------------|
B|------------------------------------------|
G|--4-44--4-44--4--44----4-44--4-44--4--44--|
D|--x-xx--x-xx--x--xx----x-xx--x-xx--x--xx--|
A|--2-22--2-22--2--22----2-22--2-22--2--22--| (x4)
E|------------------------------------------|
E|---------------------------------------|
B|---------------------------------------|
G|--99999999-99999999-99999999-99999999--|
D|--xxxxxxxx-xxxxxxxx-xxxxxxxx-xxxxxxxx--|
A|--77777777-77777777-77777777-77777777--| (x1)
E|---------------------------------------|
post-chorus
E|---------------------------------|
B|--4----5-4----5-4----5-4----2-4--|
G|----4-------4------4------4------|
D|---------------------------------|
A|---------------------------------| (x1)
E|---------------------------------|
E|-----------------------------------|
B|-----5-4----5-4----5-4----2-4------|
G|--4-------4------4------4------4~--|
D|-----------------------------------|
A|-----------------------------------| (x1)
E|-----------------------------------|
(the alternate part that tom plays)
E|----------------------------------------------|
B|----------------------------------------------|
G|--4-444444-11-111111111111-9-999999-6-666666--|
D|--x-xxxxxx--x--x-x-x-x-x-x-x-xxxxxx-x-xxxxxx--|
A|--2-222222--9--9-9-9-9-9-9-7-777777-4-444444--| (x2)
E|----------------------------------------------|
E|------|
B|------|
G|--4~--|
D|--x---|
A|--2~--| (x1)
E|------|
break... then
E|--------------------------------|
B|-------2-4----2-4----2-4--------|
G|-----4------4------4------4--4--|
D|--------------------------------|
A|--2-----------------------------| (x2)
E|--------------------------------|
chorus
E|------------------------------------------|
B|------------------------------------------|
G|--4-44--4-44--4--44----4-44--4-44--4--44--|
D|--x-xx--x-xx--x--xx----x-xx--x-xx--x--xx--|
A|--2-22--2-22--2--22----2-22--2-22--2--22--| (x4)
E|------------------------------------------|
E|---------------------------------------|
B|---------------------------------------|
G|--99999999-99999999-99999999-99999999--|
D|--xxxxxxxx-xxxxxxxx-xxxxxxxx-xxxxxxxx--|
A|--77777777-77777777-77777777-77777777--| (x1)
E|---------------------------------------|
bridge
E|--------------------------------------------|
B|--------------------------------------------|
G|--44444444-44444444-88888888-8888-11111111--|
D|--xxxxxxxx-xxxxxxxx-xxxxxxxx-xxxx--x-x-x-x--|
A|--22222222-22222222-66666666-6666--9-9-9-9--| (x1)
E|--------------------------------------------|
E|---------------------------------------|
B|---------------------------------------|
G|--99999999-99999999-99999999-99999999--|
D|--xxxxxxxx-xxxxxxxx-xxxxxxxx-xxxxxxxx--|
A|--77777777-77777777-77777777-77777777--| (x1)
E|---------------------------------------|
E|--------------------------------------------|
B|--------------------------------------------|
G|--44444444-44444444-88888888-8888-11111111--|
D|--xxxxxxxx-xxxxxxxx-xxxxxxxx-xxxx--x-x-x-x--|
A|--22222222-22222222-66666666-6666--9-9-9-9--| (x1)
E|--------------------------------------------|
E|--------------------------------|
B|--------------------------------|
G|--99999999-99999999-99999999-9--|
D|--xxxxxxxx-xxxxxxxx-xxxxxxxx-x--|
A|--77777777-77777777-77777777-7--| (x1)
E|--------------------------------|
second part of bridge
E|--------------------------------------------| _____
B|--------------------------------------------|
G|--44444444-44444444-88888888-8888-11111111--|
D|--xxxxxxxx-xxxxxxxx-xxxxxxxx-xxxx--x-x-x-x--|
A|--22222222-22222222-66666666-6666--9-9-9-9--| (x1)
E|--------------------------------------------|
|
E|---------------------------------------| /
B|---------------------------------------| /
G|--99999999-99999999-99999999-99999999--| / play this
D|--xxxxxxxx-xxxxxxxx-xxxxxxxx-xxxxxxxx--| / whole thing
A|--77777777-77777777-77777777-77777777--| (x1) / 2 times
E|---------------------------------------| _________/
third part of bridge
____
E|---------------------------------------|
B|---------------------------------------|
G|--44444444-44444444-88888888-88888888--|
D|--xxxxxxxx-xxxxxxxx-xxxxxxxx-xxxxxxxx--|
A|--22222222-22222222-66666666-66666666--| (x1)
E|---------------------------------------|
|
E|---------------------------------------| /
B|---------------------------------------| (x1) /
G|--99999999-99999999-99999999-99999999--| / play this
D|--xxxxxxxx-xxxxxxxx-xxxxxxxx-xxxxxxxx--| / whole thing
A|--77777777-77777777-77777777-77777777--| / 2 times
E|---------------------------------------| ____/
(under third part of bridge tom is repeatedly strumming this...)
E|---------------------------------------|
B|---------------------------------------|
G|--44444444-44444444-44444444-44444444--|
D|--xxxxxxxx-xxxxxxxx-xxxxxxxx-xxxxxxxx--|
A|--22222222-22222222-22222222-22222222--| (x4)
E|---------------------------------------|
chorus
E|------------------------------------------|
B|------------------------------------------|
G|--4-44--4-44--4--44----4-44--4-44--4--44--|
D|--x-xx--x-xx--x--xx----x-xx--x-xx--x--xx--|
A|--2-22--2-22--2--22----2-22--2-22--2--22--| (x4)
E|------------------------------------------|
then outro kinda thing
E|------------------------------------------|
B|------------------------------------------|
G|--4-44--4-44--4--44----4-44--4-44--4--44--|
D|--x-xx--x-xx--x--xx----x-xx--x-xx--x--xx--|
A|--2-22--2-22--2--22----2-22--2-22--2--22--| (x3)
E|------------------------------------------|
underneath that is...
E|---------------------------------|
B|--4----5-4----5-4----5-4----2-4--|
G|----4-------4------4------4------|
D|---------------------------------|
A|---------------------------------| (x1)
E|---------------------------------|
E|--------------------------------|
B|-----5-4----5-4----5-4----2-4---|
G|--4-------4------4------4-------|
D|--------------------------------|
A|--------------------------------| (x1)
E|--------------------------------|
E|------------------------|
B|-----5-4----5-4----5-4--|
G|--4-------4------4------|
D|------------------------|
A|------------------------| (x1)
E|------------------------|
first guitar ends on
E|----------|
B|----------|
G|--4-4-4~--|
D|--x-x-x---|
A|--2-2-2~--| (x1)
E|----------|
second guitar ends on
E|-----------|
B|--5-5-5~---|
G|--4-4-4~---|
D|-----------|
A|-----------| (x1)
E|-----------|
there you go! a little confusing... but if you read through the whole thing you'll see
that this tab is 100% correct! if you have any comments or questions you can e-mail me
at killinginthename247@yahoo.com



Get this song at amazon.com      Ebay     Ringtones Ringtones  


Learn to play: Songwriting, Piano, Harmonica, Guitar
Also available at Muzikum: Blink 182 - Everytime I Look For You lyrics

Related Blink 182 Tabs

Always tabs
Tv tabs
Dicklips (live) tabs
First Date (live) tabs
Dammit (live An Normal 100%) tabs
The Girl Next Door tabs
Not Now tabs
A New Hope tabs
Rich Lips Live Intro tabs
Carousel Intro tabs
Party Song, The tabs
Hold On tabs
Point Of View Solo tabs
Down tabs
Enema Of The State Album tabs
Wendy Clear tabs
Track 15 tabs
Boring tabs
Dont Leave Me Bass tabs
Violence (live) tabs


Guitar Tabs









All tabs are property and copyright of their owners. All tabs provided for educational purposes only. Privacy Policy, DMCA

Online converter - videoconverter.com