Blink 182

Everytime I Look For You Bass Tabs



More from Blink 182

Blink 182 Tabs
Blink 182 Chords
Blink 182 Bass
Blink 182 Lyrics



song:everytime i look for you
artist:blink 182
album:take off your pants and jacket

posted by j. lun. (lundawg182@hotmail.com)


1st verse
g---------------------------------------
d-------1--2---------1--2---------------
a-2-----------2-------------------------
e---------------------------------------

between verses play:
g---------------------------------------
d-----4444-2222-------------------------
a-2222---------2222---------------------
e---------------------------------------

all verses after 1st verse:
g---------------------------------------
d-----------1111-2222-------------------x2
a-2222-2222-----------------------------
e---------------------------------------

then
g---------------------------------------
d-------1--2---------1--2---------------
a-2-----------2-------------------------
e---------------------------------------

chorus
g---------------------------------------
d----------------2222-------------------
a-2222-2222-----------------------------
e-----------0000------------------------

bridge
g---------------------------------------
d-----------1111-11-44-2222-2222-2222-2222 x2
a-2222-2222-----------------------------
e---------------------------------------

then (when mark starts singing)
g---------------------------------------
d-----------4444-4444-2222-2222-2222-2222
a-2222-2222-----------------------------
e---------------------------------------

end on a-2-






Get this song at amazon.com      Ebay     Ringtones Ringtones  


Learn to play: Songwriting, Piano, Harmonica, Guitar
Also available at Muzikum: Blink 182 - Everytime I Look For You lyrics

Related Blink 182 Bass Tabs

Man Overboard bass
Aliens Exist bass
A New Hope Solo bass
Fallen Interlude bass
Hold On bass
Waggy bass
Every Time I Look For You bass
Ben Wah Balls bass
Always bass
Dumpweed live bass
Dammit (best You'll Find) bass
What Went Wrong (tabbed For Bass) bass
Verse For Cacophony bass
Up All Night bass
Josie bass
Dammit Live (warped Tour) bass
Always (perfect) bass
Toast And Bananas bass
Mothers Day bass
The anthem pt2 bass


Guitar Tabs









All tabs are property and copyright of their owners. All tabs provided for educational purposes only. Privacy Policy, DMCA