Blink 182

Enema Bass Tabs



More from Blink 182

Blink 182 Tabs
Blink 182 Chords
Blink 182 Bass
Blink 182 Lyrics




Riff 1 note: these notes are played in the same rythm as Blink
182 - TV
G|------------------------------------------------------------------------
D|---11----11---11-------11-------11----11-----8-----8---8----------------
A|9-9--9-9----9----11-11----11-11----11----6-6---6-6---6-------9-----9---9
E|---------------------------------------------------------7-7---7-7---7--


Riff 2 note: play both notes together as a chord
G|----------------------------------------------------------
D|-11--11--15--16-------------------------------------------
A|-9---11--13--14-------------------------------------------
E|----------------------------------------------------------


Riff 3 note: notice the "8686" in the first series of notes
G|-------------------------------------------------------------------
D|-------------------------------------------------------------------
A|-6666666666668686----------------9999999999999999------------------
E|-----------------7777777777777777----------------9999999999999999--

Riff 4
G|-------------------------------------------------------------------
D|-------------------------------------------------------------------
A|-6666666666668686----------------9999999999999999------------------
E|-----------------7777777777777777----------------9999999977777777--


End on
G|--
D|--
A|9-
E|--


order

Riff 1 x4
Riff 2 x4
Riff 1 x2
Riff 2 x2
Riff 3 x1
Riff 4 x1

Riff 1 x2
Riff 2 x2
Riff 3 x1
Riff 4 x1

Riff 1 x6



Get this song at amazon.com      Ebay     Ringtones Ringtones  


Learn to play: Songwriting, Piano, Harmonica, Guitar
More Blink 182 lyrics available at Muzikum

Related Blink 182 Bass Tabs

Touchdown Boy bass
Feels So Good bass
G O bass
M+ms bass
Im Sorry bass
Anthem bass
The Girl Next Door bass
Even If She Falls bass
Transvestite bass
Ben Wah Balls bass
All The Small Things(easy) bass
A Letter To Elise bass
All The Small Things (beginners) bass
Man Overboard(right Verson) bass
First Date bass
Natives bass
Peggy Sue bass
Good Times bass
Marlboro Man bass
Always (perfect) bass


Guitar Tabs









All tabs are property and copyright of their owners. All tabs provided for educational purposes only. Privacy Policy, DMCA