Blink 182

Enema Of The State Tabs



More from Blink 182

Blink 182 Tabs
Blink 182 Chords
Blink 182 Bass
Blink 182 Lyrics



Artist: blink-182

Album: Enema of the State



Tabbed by: rictazero (webmaster at tabs-database.com.com)



Notes:

This is my first tab and I did it completely by myself except where noted. They are all

right, I have been playing most of these songs for quite a while and blink is my

band of all time.

The second guitar parts were very hard to hear and no other tab I have seen has them. I

blink only has one guitarist but they're overdubbed and a lot of the times are

but I thought they'd be nice to have

Questions, comments, my email is up there and I welcome them.



Track Listing:

1.Dumpweed

2.Don't Leave Me

3.Aliens Exist

4.Going Away to College

5.What's My Age Again?

6.Dysentary Gary

7.Adam's Song

8.All the Small Things

9.The Party Song

10.Mutt

11.Wendy Clear

12.The Anthem



Symbols used:

h=hammer on

p=pull off

~=let ring

.=palm mute

x=deaden string (mute)

/=slide

>=pick scrape

^=natural harmonic



All songs are in standard tuning



Intro part 1(looks complicated but is very easy)

E |----------------|----------------|----------------|----------------||

B |----------------|----------------|----------------|----------------||

G |----------------|----------------|----------------|----------------||

D |-6-6h7p6---4--6-|6h7p6---4~--6-6h|7p6---4---6-6h7p|6-9-------------||

A |------------0---|----------0~----|--------0~------|----7-----------||

E |0~-------75--0~-|------75--------|----75-5--------|---7------------||



Intro part 2

E |4p0-0-4p0-0-2p0-|0-2p0-0-4p0-0-4p|0-0-5p0-0-5p0-0-|----------------||

B |---0-----0-----0|-----0-----0----|-0-----0-----0--|-----repeat-----||

G |----------------|----------------|----------------|----------------||

D |----------------|----------------|----------------|----------------||

A |----------------|----------------|----------------|----------------||

E |----------------|----------------|----------------|----------------||

|

|Guitar 2

E |----------------|----------------|----------------|----------------||

B |----------------|----------------|----------------|----------------||

G |--------22222222|4444444444444444|--------22222222|4444444444444444||

D |2222222222222222|4444444444444444|2222222222222222|4444444444444444||

A |2222222200000000|2222222222222222|2222222200000000|2222222222222222||

E |00000000--------|----------------|00000000--------|----------------||



Verse 1 (It's understood and said in many ways...)

E |----------------|----------------|----------------|----------------||

B |----------------|----------------|----------------|----------------||

G |----------------|----------------|----------------|----------------||

D |--------44444---|------44444-2-22|222244444-222222|2244444---------||

A |2-22222222222-22|22222222222-0-00|000022222-000000|0022222---------||

E |0-000000------00|000000----------|----------------|----------------||x2

........... .. ........... .. ......... ...... .......



Prechorus

E |----------------|----------------|----------------|----------------||

B |----------------|----------------|----------------|----------------||

G |----------------|----------------|----------------|----------------||

D |-6-6h7p6---4--6-|6h7p6---4~--6-6h|7p6---4---6-6h7p|6-9-------------||

A |------------0---|----------0~----|--------0~------|----7-----------||

E |0~-------75--0~-|------75--------|----75-5--------|---7------------||



Chorus (She's a dove, she's a fucking nightmare...)

E |----------------|----------------|----------------|----------------||

B |----------------|----------------|----------------|----------------||

G |--------44444444|2222222244444444|--------44444444|22222222--4--4--||

D |2222222244444444|2222222244444444|2222222244444444|22222222--4--4--||

A |2222222222222222|0000000022222222|2222222222222222|00000000--2--2--||

E |00000000--------|----------------|00000000--------|----------------||



Preverse

E |4p0-0-4p0-0-2p0-|0-2p0-0-4p0-0-4p|0-0-5p0-0-5p0-0-|----------------||

B |---0-----0-----0|-----0-----0----|-0-----0-----0--|-----repeat-----||

G |----------------|----------------|----------------|----------------||

D |----------------|----------------|----------------|----------------||

A |----------------|----------------|----------------|----------------||

E |----------------|----------------|----------------|----------------||

|

|Guitar 2

E |----------------|----------------|----------------|----------------||

B |----------------|----------------|----------------|----------------||

G |--------22222222|4444444444444444|--------22222222|4444444444444444||

D |2222222222222222|4444444444444444|2222222222222222|4444444444444444||

A |2222222200000000|2222222222222222|2222222200000000|2222222222222222||

E |00000000--------|----------------|00000000--------|----------------||



Verse 2 (I've heard it once, I'm sure I've heard it twice...)

E |----------------|----------------|----------------|----------------||

B |----------------|----------------|----------------|----------------||

G |----------------|----------------|----------------|----------------||

D |--------44444---|------44444-2-22|222244444-222222|2244444---------||

A |2-22222222222-22|22222222222-0-00|000022222-000000|0022222---------||

E |0-000000------00|000000----------|----------------|----------------||x1

........... .. ........... .. ......... ...... .......



Prechorus

E |----------------|----------------|----------------|----------------||

B |----------------|----------------|----------------|----------------||

G |----------------|----------------|----------------|----------------||

D |-6-6h7p6---4--6-|6h7p6---4~--6-6h|7p6---4---6-6h7p|6-9-------------||

A |------------0---|----------0~----|--------0~------|----7-----------||

E |0~-------75--0~-|------75--------|----75-5--------|---7------------||



Chorus 2 (She's a dove, she's a fucking nightmare...)

E |----------------|----------------|----------------|----------------||

B |----------------|----------------|----------------|----------------||

G |--------44444444|2222222244444444|--------44444444|22222222--4--4--||

D |2222222244444444|2222222244444444|2222222244444444|22222222--4--4--||

A |2222222222222222|0000000022222222|2222222222222222|00000000--2--2--||

E |00000000--------|----------------|00000000--------|----------------||x2



Bridge (Need a girl that I can train...)

E |----------------|----------------|----------------|----------------||

B |----------------|----------------|----------------|----------------||

G |----------------|----------------|----------------|----------------||

D |--------44444---|------44444-2222|222244444-222222|2244444---------||

A |2222222222222-22|22222222222-0000|000022222-000000|0022222---------||

E |00000000------00|000000----------|----------------|----------------||x2

............. .. ........... .... ......... ...... .......



Outro

E |----------------|----------------|----------------|----------------||

B |----------------|----------------|----------------|----------------||

G |----------------|----------------|----------------|----------------||

D |--------44444---|------44444-2222|222244444-222222|2244444---------||

A |2222222222222-22|22222222222-0000|000022222-000000|0022222---------||

E |00000000------00|000000----------|----------------|----------------||

|............. .. ........... .... ......... ...... .......

|Guitar 2

E |4-0--0--2-0--0--|4-0--0--5-0--0--|4-0--0--2-0--0--|4-0--0--5-0--0-2||

B |---0--0----0--0-|---0--0----0--0-|---0--0----0--0-|---0--0----0----||

G |----------------|----------------|----------------|----------------||

D |----------------|----------------|----------------|----------------||

A |----------------|----------------|----------------|----------------||

E |----------------|----------------|----------------|----------------||

. .. .. . .. .. . .. .. . .. .. . .. .. . .. .. . .. .. . ..



(Need a girl that I can train...)

E |----------------|----------------|----------------|----------------||

B |----------------|----------------|----------------|----------------||

G |----------------|----------------|----------------|----------------||

D |--------44444---|------44444-2222|222244444-222222|2244444---------||

A |2222222222222-22|22222222222-0000|000022222-000000|0022222---------||

E |00000000------00|000000----------|----------------|----------------||x

|............. .. ........... .... ......... ...... .......

|Guitar 2

E |4-0--0--2-0--0--|4-0--0--5-0--0--|4-0--0--2-0--0--|4-0--0--2-0--0--||

B |---0--0----0--0-|---0--0----0--0-|---0--0----0--0-|---0--0----0----||

G |----------------|----------------|----------------|----------------||

D |----------------|----------------|----------------|----------------||

A |----------------|----------------|----------------|----------------||

E |----------------|----------------|----------------|----------------||

. .. .. . .. .. . .. .. . .. .. . .. .. . .. .. . .. .. . .. .



________________________________________________________________________________________________

2. DON'T LEAVE ME



Intro

E |----------------|----------------|----------------|----------------||

B |----------------|----------------|----------------|----------------||

G |----------------|7-777------4-444|7-77-77-9-99-99-|-----repeat-----||

D |xxxx-7-777-xxxx-|7-777-xxxx-4-444|7-77-77-9-99-99-|----------------||

A |xxxx-7-777-xxxx-|5-555-xxxx-2-222|5-55-55-7-77-77-|----------------||

E |xxxx-5-555-xxxx-|------xxxx------|----------------|----------------||



Verse 1 (Don't leave me all alone...)

E |----------------|----------------|----------------|----------------||

B |----------------|----------------|----------------|----------------||

G |----------------|----------------|----------------|----------------||

D |7~--------------|----------------|----------------|---------xxxxxxx||

A |7~--------------|----------------|----------------|---------xxxxxxx||

E |5~--------------|----------------|----------------|---------xxxxxxx||



Chorus (She said that I'm not the one that she thinks about and...)

E |----------------|----------------|----------------|----------------||

B |----------------|----------------|----------------|----------------||

G |------4-444-7-77|7-9-999-------4-|444-7-777-9xxxxx|------4-444-7-77||

D |7-777-4-444-7-77|7-9-999-7-777-4-|444-7-777-9xxxxx|7-777-4-444-7-77||

A |7-777-2-222-5-55|5-7-777-7-777-2-|222-5-555-7xxxxx|7-777-2-222-5-55||

E |5-555-----------|--------5-555---|----------------|5-555-----------||





E |----------------|------------------||

B |----------------|------------------||

G |7-9-999-------4-|444-7-777-777777--||

D |7-9-999-7-777-4-|444-7-777-777777--||

A |5-7-777-7-777-2-|222-5-555-555555--||

E |--------5-555---|------------------||



Preverse

E |----------------|----------------|----------------|----------------||

B |----------------|----------------|----------------|----------------||

G |----------------|7-777------4-444|7-77-77-9-99-99-|-----repeat-----||

D |xxxx-7-777-xxxx-|7-777-xxxx-4-444|7-77-77-9-99-99-|----------------||

A |xxxx-7-777-xxxx-|5-555-xxxx-2-222|5-55-55-7-77-77-|----------------||

E |xxxx-5-555-xxxx-|------xxxx------|----------------|----------------||



Verse 2 (Just give me one more chance...)

E |----------------|----------------|----------------|----------------||

B |----------------|----------------|----------------|----------------||

G |----------------|----------------|--volume swell--|----------------||

D |7~--------------|----------------|----------------|---------xxxxxxx||

A |7~--------------|----------------|----------------|---------xxxxxxx||

E |5~--------------|----------------|----------------|---------xxxxxxx||



Chorus (She said that I'm not the one that she thinks about and...)

E |----------------|----------------|----------------|----------------||

B |----------------|----------------|----------------|----------------||

G |------4-444-7-77|7-9-999-------4-|444-7-777-9xxxxx|------4-444-7-77||

D |7-777-4-444-7-77|7-9-999-7-777-4-|444-7-777-9xxxxx|7-777-4-444-7-77||

A |7-777-2-222-5-55|5-7-777-7-777-2-|222-5-555-7xxxxx|7-777-2-222-5-55||

E |5-555-----------|--------5-555---|----------------|5-555-----------||



E |----------------|----------------||

B |----------------|----------------||

G |7-9-999-------4-|444-777777777---||

D |7-9-999-7-777-4-|444-777777777---||

A |5-7-777-7-777-2-|222-555555555---||

E |--------5-555---|----------------||



Bass Solo

E |----------------||

B |----------------||

G |----------------||

D |7~--------------||

A |7~--------------||

E |5~--------------||

|

|Guitar 2

E |5~--------------||

B |----------------||

G |----------------||

D |----------------||

A |----------------||

E |----------------||



Bridge (Let's try this one more time with feeling...)

E |----------------||

B |----------------||

G |----------------||

D |----7--7--------||

A |--7---7---------||

E |5----5----------||x8 then



E |----------------||

B |----------------||

G |----------------||

D |xxxxxxx---------||

A |xxxxxxx---------||

E |xxxxxxx---------||



Chorus (She said that I'm not the one that she thinks about and...)

E |----------------|----------------|----------------|----------------||

B |----------------|----------------|----------------|----------------||

G |------4-444-7-77|7-9-999-------4-|444-7-777-9xxxxx|------4-444-7-77||

D |7-777-4-444-7-77|7-9-999-7-777-4-|444-7-777-9xxxxx|7-777-4-444-7-77||

A |7-777-2-222-5-55|5-7-777-7-777-2-|222-5-555-7xxxxx|7-777-2-222-5-55||

E |5-555-----------|--------5-555---|----------------|5-555-----------||



E |----------------|----------------||

B |----------------|----------------||

G |7-9-999-------4-|444-777777777---||

D |7-9-999-7-777-4-|444-777777777---||

A |5-7-777-7-777-2-|222-555555555---||

E |--------5-555---|----------------||



Verse 3 (Don't leave me all alone...)

E |----------------|----------------|----------------|----------------||

B |----------------|----------------|----------------|----------------||

G |----------------|7---------------|----------------|----------------||

D |7~--------------|7-7~------------|----------------|----------------||

A |7~--------------|5-7~------------|----------------|----------------||

E |5~--------------|--5~------------|----------------|----------------||



_____________________________________________________________________________________

3. Aliens Exist



Intro

E |----------------|----------------||

B |----------------|----------------||

G |4444444444444444|4~--------------||

D |4444444444444444|4~--------------||

A |2222222222221111|2~--------------||

E |----------------|----------------||

................



Verse 1 (Hey mom, there's something in the backroom...)

No guitar



Preverse

E |----------------|----------------|----------------|----------------||

B |----------------|----------------|---------repeat-|w/o-pickslide---||

G |-----44444444---|----------------|----------------|----------------||

D |-----44444444-22|2222-66666666-22|2222------------|----------------||

A |>>>>-22222222-22|2222-66666666-22|2222------------|----------------||

E |>>>>----------00|0000-44444444-00|0000------------|----------------||



Verse 2 (What if people knew that these were real?)

E |----------------|----------------|----------------|----------------||

B |----------------|----------------|----------------|----------------||

G |----------------|----------------|----------------|----------------||

D |44444444--------|----------------|44444444--------|----------------||

A |2222222244444444|6666666622222222|2222222244444444|6666666622222222||

E |--------22222222|4444444400000000|--------22222222|4444444400000000||

............... ................ ................ ................



E |----------------|----------------|----------------|----------------||

B |----------------|----------------|----------------|----------------||

G |----------------|----------------|----------------|----------------||

D |4444444466666666|----------------|44444444--------|----------------||

A |2222222244444444|6666666622222222|2222222244444444|66666666--------||

E |----------------|4444444400000000|--------22222222|44444444--------||

................ ................ ................ .......



Chorus (Up all night long...)

E |----------------|----------------|----------------|----------------||

B |----------------|----------------|----------------|----------------||

G |4444444444444444|----------------|4444444444444444|----------------||

D |xxxxxxxxxxxxxxxx|4444444444444444|xxxxxxxxxxxxxxxx|4444444444444444||

A |2222222222222222|4444444444444444|2222222222222222|4444444444444444||

E |----------------|2222222222222222|----------------|2222222222222222||



(And I know it must be late...)

E |----------------|----------------|----------------|----------------||

B |----------------|----------------|----------------|----------------||

G |----------------|----------------|----------------|----------------||

D |11--11--11--11--|22--22--22--22--|11--11--11--11--|22--22--22--22--||

A |--2---2---2---2-|--2---2---2---2-|--2---2---2---2-|--2---2---2---2-||

E |----------------|----------------|----------------|----------------||

... ... ... ... ... ... ... ... ... ... ... ... ... ... ... ...



(I'm not like you guys...)

E |----------------||

B |----------------||

G |------4~--------||

D |4~-2~-4~-4~-2---||

A |4~-2~-2~-4~-2---||

E |2~-0~----2~-0---||



Preverse

E |----------------|----------------|----------------|----------------||

B |----------------|----------------|----------------|----------------||

G |44444444--------|----------------|44444444--------|----------------||

D |44444444-222222-|66666666-222222-|44444444-222222-|66666666-222222-||

A |22222222-222222-|66666666-222222-|22222222-222222-|66666666-222222-||

E |---------000000-|44444444-000000-|---------000000-|44444444-000000-||



Verse 3 (I am still a skeptic yes or no...)

E |----------------|----------------|----------------|----------------||

B |----------------|----------------|----------------|----------------||

G |----------------|----------------|----------------|----------------||

D |44444444--------|----------------|44444444--------|----------------||

A |2222222244444444|6666666622222222|2222222244444444|6666666622222222||

E |--------22222222|4444444400000000|--------22222222|4444444400000000||

|................ ................ ................ ................

|Guitar 2 (Very hard to hear, but I'm almost positive this is right)

E |----------------|----------------|----------------|----------------||

B |----------------|----------------|----------------|----------------||

G |----------------|----------------|----------------|----------------||

D |----------------|-----------1---1|22------1--1---1|22-----1--1---1-||

A |----------------|---------22--22-|--2------22--22-|--2-----22--22--||

E |----------------|----------------|----------------|----------------||

... ... ... .... ... ... .... ...

(I got an injection...)

E |----------------|----------------|----------------|----------------||

B |----------------|----------------|----------------|----------------||

G |----------------|----------------|----------------|----------------||

D |4444444466666666|----------------|44444444--------|----------------||

A |2222222244444444|6666666622222222|2222222244444444|66666666-2------||

E |----------------|4444444400000000|--------22222222|44444444-0------||

|................ ................ ................ ........ .

|Guitar 2

E |----------------|----------------|----------------|----------------||

B |----------------|----------------|----------------|----------------||

G |----------------|----------------|----------------|----------------||

D |22-----1--1---1-|22-----1--1---1-|22-----1--1---1-|22--------------||

A |--2-----22--22--|--2-----22--22--|--2-----22--22--|--2----212------||

E |----------------|----------------|----------------|----------------||

... .... ... ... .... ... ... .... ... ... ...



Chorus (Up all night long...)

E |----------------|----------------|----------------|----------------||

B |----------------|----------------|----------------|----------------||

G |4444444444444444|----------------|4444444444444444|----------------||

D |xxxxxxxxxxxxxxxx|4444444444444444|xxxxxxxxxxxxxxxx|4444444444444444||

A |2222222222222222|4444444444444444|2222222222222222|4444444444444444||

E |----------------|2222222222222222|----------------|2222222222222222||



(And I know it must be late...)

E |----------------|----------------|----------------|----------------||

B |----------------|----------------|----------------|----------------||

G |----------------|----------------|----------------|----------------||

D |11--11--11--11--|22--22--22--22--|11--11--11--11--|22--22--22--22--||

A |--2---2---2---2-|--2---2---2---2-|--2---2---2---2-|--2---2---2---2-||

E |----------------|----------------|----------------|----------------||

... ... ... ... ... ... ... ... ... ... ... ... ... ... ... ...



(I'm not like you guys...)

E |----------------||

B |----------------||

G |------4~--------||

D |4~-2~-4~-4~-2---||

A |4~-2~-2~-4~-2---||

E |2~-0~----2~-0---||



Bridge

E |----------------|----------------|----------------|----------------||

B |----------------|----------------|----------------|----------------||

G |44444444-444444-|44444444-444444-|44444444-444444-|44444444-444444-||

D |xxxxxxxx-xxxxxx-|xxxxxxxx-xxxxxx-|xxxxxxxx-xxxxxx-|xxxxxxxx-xxxxxx-||

A |22222222-222222-|22222222-222222-|22222222-222222-|22222222-222222-||

E |----------------|----------------|----------------|----------------||x2

|

|Guitar 2 (after 1 of guitar 1)

E |----------------|----------------|----------------|----------------||

B |----------------|----------------|----------------|----------------||

G |8888888888888888|8/66666666666666|6/99999999999999|9/8888888888888-||

D |xxxxxxxxxxxxxxxx|x-xxxxxxxxxxxxxx|x-xxxxxxxxxxxxxx|x-xxxxxxxxxxxxx-||

A |6666666666666666|6/44444444444444|4/77777777777777|7/6666666666666-||

E |----------------|----------------|----------------|----------------||



Bridge part 2 (Dark and scary, ordinary...)

E |----------------|----------------|----------------|----------------||

B |----------------|----------------|----------------|----------------||

G |----------------|----------------|--------44444444|----------------||

D |66-66-666-66-644|44-444-44-422-22|222-22-244444444|44444444--------||

A |66-66-666-66-644|44-444-44-422-22|222-22-222222222|44444444--------||

E |44-44-444-44-422|22-222-22-200-00|000-00-0--------|22222222--------||



Bridge part 3 (Nice to know ya')

E |----------------|----------------|----------------|----------------||

B |----------------|----------------|----------------|----------------||

G |----------------|----------------|--------44444444|----------------||

D |66-66-666-66-644|44-444-44-422-22|222-22-244444444|44444-----------||

A |66-66-666-66-644|44-444-44-422-22|222-22-222222222|44444-----------||

E |44-44-444-44-422|22-222-22-200-00|000-00-0--------|22222-----------||

|

|Guitar 2 (Listen, it's there)

E |----------------|----------------|----------------|----------------||

B |----------------|----------------|----------------|----------------||

G |88-88-888-88-866|66-666-66-699-99|999-99-988888888|66666-----------||

D |xx-xx-xxx-xx-xxx|xx-xxx-xx-xxx-xx|xxx-xx-xxxxxxxxx|xxxxx-----------||

A |66-66-666-66-644|44-444-44-477-77|777-77-766666666|44444-----------||

E |----------------|----------------|----------------|----------------||



Chorus (Up all night long...)

E |----------------|----------------|----------------|----------------||

B |----------------|----------------|----------------|----------------||

G |4444444444444444|----------------|4444444444444444|----------------||

D |xxxxxxxxxxxxxxxx|4444444444444444|xxxxxxxxxxxxxxxx|4444444444444444||

A |2222222222222222|4444444444444444|2222222222222222|4444444444444444||

E |----------------|2222222222222222|----------------|2222222222222222||



(And I know it must be late...)

E |----------------|----------------|----------------|----------------||

B |----------------|----------------|----------------|----------------||

G |----------------|----------------|----------------|----------------||

D |11--11--11--11--|22--22--22--22--|11--11--11--11--|22--22--22--22--||

A |--2---2---2---2-|--2---2---2---2-|--2---2---2---2-|--2---2---2---2-||

E |----------------|----------------|----------------|----------------||

... ... ... ... ... ... ... ... ... ... ... ... ... ... ... ...



(I'm not like you guys...)

E |-----------------||

B |-----------------||

G |------4~----9~-4~||

D |4~-2~-4~-4~-9~-4~||

A |4~-2~-2~-4~-7~-2~||

E |2~-0~----2~------||



Note: there is a short pause before every chorus



_________________________________________________________________________________

4. Going Away to College



Intro (Clean with an effect, maybe flange?)

E |----------------|----------------|----------------|----------------||

B |----------------|----------------|----------------|----------------||

G |6-6-666---------|6-66-666--------|6-6-666-444-444-|6-66-666-444-444||

D |7-7-777-999-999-|7-77-777-999-999|0-0-000-000-000-|0-00-000-000-000||

A |0-0-000-000-000-|0-00-000-000-000|0-0-000-000-000-|0-00-000-000-000||

E |0-0-000-000-000-|0-00-000-000-000|----------------|----------------||



E |----------------|----------------|----------------|----------------||

B |----------------|----------------|----------------|----------------||

G |6-6-666---------|6-66-666--------|6-6-666-444-444-|6-66-666-4~-----||

D |7-7-777-999-999-|7-77-777-999-999|0-0-000-000-000-|0-00-000-0~-----||

A |0-0-000-000-000-|0-00-000-000-000|0-0-000-000-000-|0-00-000-0~-----||

E |0-0-000-000-000-|0-00-000-000-000|----------------|----------------||



(Distortion comes on here)

E |----------------|----------------|----------------|----------------||

B |----------------|----------------|----------------|----------------||

G |-----6-----6--4-|-6-----------6--|---6--4--6------|----------------||

D |--7-----7---00-0|0---9--9--7-----|7---00-00---9--9|----------------||

A |00-00-00-00-----|--77-77-00-00-00|-00-------77-77-|----------------||

E |----------------|----------------|----------------|----------------||

|

|Guitar 2 (Not sure if this is there but it sounds like it)

E |----------------|----------------|----------------|----------------||

B |----------------|----------------|----------------|----------------||

G |2222222222222222|7777777799999999|2222222222222222|7777777799999999||

D |2222222222222222|7777777799999999|2222222222222222|7777777799999999||

A |0000000000000000|5555555577777777|0000000000000000|5555555577777777||

E |----------------|----------------|----------------|----------------||



Verse 1 (Please take me...)

E |----------------|----------------|----------------|----------------||

B |----------------|----------------|----------------|----------------||

G |----------------|7-7777779-999999|--------7-777777|9-999999--------||

D |7~------7-7-7-7-|x-xxxxxxx-xxxxxx|7-7-7-7-x-xxxxxx|x-xxxxxx--------||

A |7~------7-7-7-7-|5-5555557-777777|7-7-7-7-5-555555|7-777777--------||

E |5~------5-5-5-5-|----------------|5-5-5-5---------|----------------||



Preverse

E |----------------|----------------|----------------|----------------||

B |----------------|----------------|----------------|----------------||

G |-----6-----6--4-|-6-----------6--|---6--4--6------|----------------||

D |--7-----7---00-0|0---9--9--7-----|7---00-00---9--9|----------------||

A |00-00-00-00-----|--77-77-00-00-00|-00-------77-77-|----------------||

E |----------------|----------------|----------------|----------------||

|

|Guitar 2 (Not sure if this is there but it sounds like it)

E |----------------|----------------|----------------|----------------||

B |----------------|----------------|----------------|----------------||

G |2222222222222222|7777777799999999|2222222222222222|7777777799999999||

D |2222222222222222|7777777799999999|2222222222222222|7777777799999999||

A |0000000000000000|5555555577777777|0000000000000000|5555555577777777||

E |----------------|----------------|----------------|----------------||



Verse 2 (Why does it feel the same...)

E |----------------|----------------|----------------|----------------||

B |----7^7^--------|----------------|----------------|----------------||

G |----------------|7-7777779-999999|--------7-777777|9-999999--------||

D |7~------7-7-7-7-|x-xxxxxxx-xxxxxx|7-7-7-7-x-xxxxxx|x-xxxxxx--------||

A |7~------7-7-7-7-|5-5555557-777777|7-7-7-7-5-555555|7-777777--------||

E |5~------5-5-5-5-|----------------|5-5-5-5---------|----------------||



Chorus (I haven't been this scared in a long time...)

E |----------------|----------------|----------------|----------------||

B |----------------|----------------|----------------|----------------||

G |8-8888889-999999|----------------|8-8888889-999999|----------------||

D |x-xxxxxxx-xxxxxx|9-9999994-444444|x-xxxxxxx-xxxxxx|9-9999994-444444||

A |6-6666667-777777|9-9999994-444444|6-6666667-777777|9-9999994-444444||

E |----------------|7-7777772-222222|----------------|7-7777772-222222||



(Bouquet of clumsy words...)

E |----------------|----------------|----------------|----------------||

B |----------------|----------------|----------------|----------------||

G |8-8888889-999999|----------------|8-8888889-999999|----------------||

D |x-xxxxxxx-xxxxxx|9-9999994-444444|x-xxxxxxx-xxxxxx|9-9999994~------||

A |6-6666667-777777|9-9999994-444444|6-6666667-777777|9-9999994~------||

E |----------------|7-7777772-222222|----------------|7-7777772~------||



Preverse

E |----------------|----------------|----------------|----------------||

B |----------------|----------------|----------------|----------------||

G |-----6-----6--4-|-6-----------6--|---6--4--6------|----------------||

D |--7-----7---00-0|0---9--9--7-----|7---00-00---9--9|----------------||

A |00-00-00-00-----|--77-77-00-00-00|-00-------77-77-|----------------||

E |----------------|----------------|----------------|----------------||

|

|Guitar 2 (Not sure if this is there but it sounds like it)

E |----------------|----------------|----------------|----------------||

B |----------------|----------------|----------------|----------------||

G |2222222222222222|7777777799999999|2222222222222222|7777777799999999||

D |2222222222222222|7777777799999999|2222222222222222|7777777799999999||

A |0000000000000000|5555555577777777|0000000000000000|5555555577777777||

E |----------------|----------------|----------------|----------------||



Verse 3 (I'll think about the times...)

E |----------------|----------------|----------------|----------------||

B |----------------|----------------|----------------|----------------||

G |--6--6--6--6--6-|-6--7------6--6-|-6--6--6--6--7--|----------------||

D |------------00-0|0------7--------|-----00-00------|7---------------||

A |00-00-00-00-----|--77-77--00-00-0|0-00-------77-77|----------------||

E |----------------|----------------|----------------|----------------||

.. .. .. .. .. . . .. .. .. .. . . .. .. .. .. ..



(I ditched my lecture...)

E |----------------|----------------|----------------|----------------||

B |----------------|----------------|----------------|----------------||

G |--------7-777777|9-999999--------|7-7777779-999999|----------------||

D |7-7-7-7-x-xxxxxx|x-xxxxxx-7-7-7-7|x-xxxxxxx-xxxxxx|----------------||

A |7-7-7-7-5-555555|7-777777-7-7-7-7|5-5555557-777777|----------------||

E |5-5-5-5---------|---------5-5-5-5|----------------|----------------||



Chorus (I haven't been this scared in a long time...)

E |----------------|----------------|----------------|----------------||

B |----------------|----------------|----------------|----------------||

G |8-8888889-999999|----------------|8-8888889-999999|----------------||

D |x-xxxxxxx-xxxxxx|9-9999994-444444|x-xxxxxxx-xxxxxx|9-9999994-444444||

A |6-6666667-777777|9-9999994-444444|6-6666667-777777|9-9999994-444444||

E |----------------|7-7777772-222222|----------------|7-7777772-222222||



(Bouquet of clumsy words...)

E |----------------|----------------|----------------|----------------||

B |----------------|----------------|----------------|----------------||

G |8-8888889-999999|----------------|8-8888889-999999|----------------||

D |x-xxxxxxx-xxxxxx|9-9999994-444444|x-xxxxxxx-xxxxxx|9-9999994~------||

A |6-6666667-777777|9-9999994-444444|6-6666667-777777|9-9999994~------||

E |----------------|7-7777772-222222|----------------|7-7777772~------||



Bridge(Clean) (Guitar 2 lets ring an A5 chord w/distortion)

E |----------------|----------------|----------------|----------------||

B |----------------|----------------|----------------|----------------||

G |6-6-666---------|6-66-666--------|6-6-666-444-444-|6-66-666-444-444||

D |7-7-777-999-999-|7-77-777-999-999|0-0-000-000-000-|0-00-000-000-000||

A |0-0-000-000-000-|0-00-000-000-000|0-0-000-000-000-|0-00-000-000-000||

E |0-0-000-000-000-|0-00-000-000-000|----------------|----------------||



E |----------------|----------------|----------------|----------------||

B |----------------|----------------|----------------|----------------||

G |6-6-666---------|6-66-666--------|6-6-666-444-444-|6-66-666-4~-----||

D |7-7-777-999-999-|7-77-777-999-999|0-0-000-000-000-|0-00-000-0~-----||

A |0-0-000-000-000-|0-00-000-000-000|0-0-000-000-000-|0-00-000-0~-----||

E |0-0-000-000-000-|0-00-000-000-000|----------------|----------------||



Chorus (I haven't been this scared in a long time...)

E |----------------|----------------|----------------|----------------||

B |----------------|----------------|----------------|----------------||

G |8-8888889-999999|----------------|8-8888889-999999|----------------||

D |x-xxxxxxx-xxxxxx|9-9999994-444444|x-xxxxxxx-xxxxxx|9-9999994-444444||

A |6-6666667-777777|9-9999994-444444|6-6666667-777777|9-9999994-444444||

E |----------------|7-7777772-222222|----------------|7-7777772-222222||



(Bouquet of clumsy words...)

E |----------------|----------------|----------------|----------------||

B |----------------|----------------|----------------|----------------||

G |8-8888889-999999|----------------|8-8888889-999999|----------------||

D |x-xxxxxxx-xxxxxx|9-9999994-444444|x-xxxxxxx-xxxxxx|9-9999994~------||

A |6-6666667-777777|9-9999994-444444|6-6666667-777777|9-9999994~------||

E |----------------|7-7777772-222222|----------------|7-7777772~------||



______________________________________________________________________________________________________________

5.What's My Age Again?



Intro/Verse 1 (I took her out, it was a Friday night...)(Clean)

E |----------------|----------------|----------------|----------------||

B |---11-----11----|--11------11----|----------------|----------------||

G |-11--11-11--11--|11--11--11--11--|----------------|----------------||

D |9---------------|----------------|----------------|----------------||

A |-------9--------|----------------|----------------|----------------||

E |--------------9-|------11--------|----------------|----------------||x7



The last time it goes

E |----------------|----------------|----------------|----------------||

B |---11-----11----|--11-----11-----|11-----11-------|----------------||

G |-11--11-11--11--|11--11-11--11-11|--11-11--11-----|----------------||

D |9---------------|-------------9--|----9-----------|----------------||

A |-------9--------|----------------|----------------|----------------||

E |--------------9-|------9---------|----------------|----------------||



Chorus (Nobody likes you when you're 23...)(Distortion)

E |----------------|----------------|----------------|----------------||

B |----------------|----------------|----------------|----------------||

G |--6-6-8-8-44444-|--6-6-8-8-44444-|--6-6-8-8-44444-|------8-88888888||

D |4-6-6-8-8-44444-|4-6-6-8-8-44444-|4-6-6-8-8-44444-|4-6-6-8-88888888||

A |4-4-4-6-6-22222-|4-4-4-6-6-22222-|4-4-4-6-6-22222-|4-4-4-6-66666666||

E |2---------------|2---------------|2---------------|2---------------||



(What's my age again?)

E |----------------||

B |----------------||

G |6-66666666-4~---||

D |6-66666666-4~---||

A |4-44444444-2~---||



Preverse (Done on a different guitar than the chorus)(Clean)

E |----------------|----------------|----------------|----------------||

B |---11-----11----|--11------11----|----------------|----------------||

G |-11--11-11--11--|11--11--11--11--|----------------|----------------||

D |9---------------|----------------|----------------|----------------||

A |-------9--------|----------------|----------------|----------------||

E |--------------9-|------11--------|----------------|----------------||



Verse 2 (Later on, on the drive home, I called her mom...)(Distortion)

E |----------------|----------------|----------------|----------------||

B |----------------|----------------|----------------|----------------||

G |----------------|----------------|----------------|----------------||

D |4444----6666888-|4444----6666888-|4444----6666888-|4444----66666666||

A |2222444-44446661|2222444-44446661|2222444-44446661|2222444444444444||

E |----2220--------|----2220--------|----2220--------|----2222--------||

................ ................ ................ ................



(And that's about the time that bitch...)

E |----------------||

B |----------------||

G |----------------||

D |44444444--------||

A |22222222--------||

E |----------------||

........



Chorus (Nobody likes you when you're 23...)(Distortion)

E |----------------|----------------|----------------|----------------||

B |----------------|----------------|----------------|----------------||

G |--6-6-8-8-44444-|--6-6-8-8-44444-|--6-6-8-8-44444-|------8-88888888||

D |4-6-6-8-8-44444-|4-6-6-8-8-44444-|4-6-6-8-8-44444-|4-6-6-8-88888888||

A |4-4-4-6-6-22222-|4-4-4-6-6-22222-|4-4-4-6-6-22222-|4-4-4-6-66666666||

E |2---------------|2---------------|2---------------|2---------------||



(What's my age again?)

E |----------------||

B |----------------||

G |6-66666666-4~---||

D |6-66666666-4~---||

A |4-44444444-2~---||



Interlude(Clean)

E |----------------|----------------|----------------|----------------||

B |11----11-----11-|---11-----------|----------------|----------------||

G |---11----11-----|11---11---------|----------------|-------11-------||

D |------------9---|-----------8h9--|--8h9----8h9----|8h9--8----8--8--||

A |----------------|--------999----9|99----999----999|----9-9--9--9-9-||

E |----------------|----------------|----------------|----------------||



E |----------------|----------------|----------------|----------------||

B |----------------|----------------|----------------|----------------||

G |11------11------|11------11------|11------11------|11--------------||

D |---8--8----8--8-|---8--8----8--8-|---8--8----8--8-|---8------------||

A |--9--9-9--9--9-9|--9--9-9--9--9-9|--9--9-9--9--9-9|--9-------------||

E |----------------|----------------|----------------|----------------||



Chorus (Nobody likes you when you're 23...)(Distortion)

E |----------------|----------------|----------------|----------------||

B |----------------|----------------|----------------|----------------||

G |--6-6-8-8-44444-|--6-6-8-8-44444-|--6-6-8-8-44444-|------8-88888888||

D |4-6-6-8-8-44444-|4-6-6-8-8-44444-|4-6-6-8-8-44444-|4-6-6-8-88888888||

A |4-4-4-6-6-22222-|4-4-4-6-6-22222-|4-4-4-6-6-22222-|4-4-4-6-66666666||

E |2---------------|2---------------|2---------------|2---------------||



(What's my age again?)

E |----------------||

B |----------------||

G |6-66666666------||

D |6-66666666------||

A |4-44444444------||



Chorus 2 (That's about the time that she broke up with me...)(Distortion)

E |----------------|----------------|----------------|----------------||

B |----------------|----------------|----------------|----------------||

G |--6-6-8-8-44444-|--6-6-8-8-44444-|--6-6-8-8-44444-|------8-88888888||

D |4-6-6-8-8-44444-|4-6-6-8-8-44444-|4-6-6-8-8-44444-|4-6-6-8-88888888||

A |4-4-4-6-6-22222-|4-4-4-6-6-22222-|4-4-4-6-6-22222-|4-4-4-6-66666666||

E |2---------------|2---------------|2---------------|2---------------||

|

|Guitar 2 (Clean)

E |----------------|----------------|----------------|----------------||

B |---11-----11----|--11------11----|----------------|----------------||

G |-11--11-11--11--|11--11--11--11--|----------------|----------------||

D |9---------------|----------------|----------------|----------------||

A |-------9--------|----------------|----------------|----------------||

E |--------------9-|------11--------|----------------|----------------||x3



(What's my age again?)

E |----------------||

B |----------------||

G |6-66666666------||

D |6-66666666------||

A |4-44444444------||

|

|Guitar 2 (Changes around the 4th F#5)

E |----------------|----------------|----------------|----------------||

B |---11-----11----|--11-----11-----|11-----11-------|----------------||

G |-11--11-11--11--|11--11-11--11-11|--11-11--11-----|----------------||

D |9---------------|-------------9--|----9-----------|----------------||

A |-------9--------|----------------|----------------|----------------||

E |--------------9-|------9---------|----------------|----------------||



Outro

E |----------------|----------------|----------------|----------------||

B |----------------|----------------|----------------|----------------||

G |--6-6-8-8-44444-|--6-6-8-8-44444-|--6-6-8-8-44444-|------8-88888888||

D |4-6-6-8-8-44444-|4-6-6-8-8-44444-|4-6-6-8-8-44444-|4-6-6-8-88888888||

A |4-4-4-6-6-22222-|4-4-4-6-6-22222-|4-4-4-6-6-22222-|4-4-4-6-66666666||

E |2---------------|2---------------|2---------------|2---------------||

|

|Guitar 2 (Clean)

E |----------------|----------------|----------------|----------------||

B |---11-----11----|--11------11----|----------------|----------------||

G |-11--11-11--11--|11--11--11--11--|----------------|----------------||

D |9---------------|----------------|----------------|----------------||

A |-------9--------|----------------|----------------|----------------||

E |--------------9-|------11--------|----------------|----------------||



(What's my age again?)

E |----------------||

B |----------------||

G |6-66666666-4~---||

D |6-66666666-4~---||

A |4-44444444-2~---||

|

|Guitar 2 (Chagnes around the 4th F#5)

E |----------------|----------------|----------------|----------------||

B |---11-----11----|--11-----11-----|11-----11-------|----------------||

G |-11--11-11--11--|11--11-11--11-11|--11-11--11-----|----------------||

D |9---------------|-------------9--|----9-----------|----------------||

A |-------9--------|----------------|----------------|----------------||

E |--------------9-|------9---------|----------------|----------------||



____________________________________________________________________________________________________________

6. Dysentary Gary



Intro

Guitar 1

E |----------------|----------------|----------------|----------------||

B |----------------|----------------|----------------|----------------||

G |----------------|----------------|----------------|----------------||

D |444---555444----|---444----------|----------------|----------------||

A |---555------5555|--------444444--|----------------|----------------||

E |----------------|333---55--------|----------------|----------------||x4

|

|Guitar 2 (Starts after one of guitar 1)

E |----------------|----------------|----------------|------------------||

B |----------------|----------------|----------------|------------------||

G |7~--7-----------|7777777777777777|----------------|------------------||

D |7~--7-----------|7777777777777777|5555555577777777|------------------||

A |5~--5-----------|5555555555555555|5555555577777777|------------------||

E |----------------|----------------|3333333355555555|------------------||

+-------------this x2-------------------------------||



Verse1 (Got a lot of heartache...)

E |----------------|----------------|----------------|----------------||

B |----------------|----------------|----------------|----------------||

G |7xxxx7~-7xxxx7~-|----------------|----------------|----------------||

D |7xxxx7~-7xxxx7~-|5xxxx5~-7xxxx7xx|xx7x------------|----------------||

A |5xxxx5~-5xxxx5~-|5xxxx5~-7xxxx7xx|xx7x------------|----------------||

E |----------------|3xxxx3~-5xxxx5xx|xx5x------------|----------------||x2



Prechorus

E |----------------|----------------|----------------|----------------||

B |7-7-7-7-7-7-7-7-|----------------|----------------|----------------||

G |7-7-7-7-7-7-7-7-|4-4-4-4-6-6-6-6-|----------------|----------------||

D |7-7-7-7-7-7-7-7-|5-5-5-5-7-7-7-7-|----------------|----------------||

A |5-5-5-5-5-5-5-5-|5-5-5-5-7-7-7-7-|----------------|----------------||

E |----------------|3-3-3-3-5-5-5-5-|----------------|----------------||



Chorus(He's a player...)

E |----------------|----------------|----------------|----------------||

B |----------------|----------------|----------------|----------------||

G |7777777777777777|7777777777777777|----------------|----------------||

D |xxxxxxxxxxxxxxxx|xxxxxxxxxxxxxxxx|5555555555555555|7777777777777777||

A |5555555555555555|5555555555555555|5555555555555555|7777777777777777||

E |----------------|----------------|3333333333333333|5555555555555555||



Chorus 2 (Life just sucks...)

E |1514------------||

B |----15----------||

G |-------121212---||

D |----------------||

A |----------------||

E |----------------||x6



Preverse

Guitar 1

E |----------------|----------------|----------------|----------------||

B |----------------|----------------|----------------|----------------||

G |----------------|----------------|----------------|----------------||

D |444---555444----|---444----------|----------------|----------------||

A |---555------5555|--------444444--|----------------|----------------||

E |----------------|333---55--------|----------------|----------------||x2

|

|Guitar 2

E |----------------|----------------|----------------|----------------||

B |----------------|----------------|----------------|----------------||

G |7~--------------|--------77777777|77777777--------|----------------||

D |7~------55555555|7777777777777777|7777777755555555|77777777--------||

A |5~------55555555|7777777755555555|5555555555555555|77777777--------||

E |--------33333333|55555555--------|--------33333333|55555555--------||



Verse 2 (So all you little ladies...)

E |----------------|----------------|----------------|----------------||

B |----------------|----------------|----------------|----------------||

G |7xxxx7~-7xxxx7~-|----------------|----------------|----------------||

D |7xxxx7~-7xxxx7~-|5xxxx5~-7xxxx7xx|xx7x------------|----------------||

A |5xxxx5~-5xxxx5~-|5xxxx5~-7xxxx7xx|xx7x------------|----------------||

E |----------------|3xxxx3~-5xxxx5xx|xx5x------------|----------------||x2



Prechorus (Ease away the problems and the pain...)

E |----------------|----------------|----------------|----------------||

B |7-7-7-7-7-7-7-7-|----------------|----------------|----------------||

G |7-7-7-7-7-7-7-7-|4-4-4-4-6-6-6-6-|----------------|----------------||

D |7-7-7-7-7-7-7-7-|5-5-5-5-7-7-7-7-|----------------|----------------||

A |5-5-5-5-5-5-5-5-|5-5-5-5-7-7-7-7-|----------------|----------------||

E |----------------|3-3-3-3-5-5-5-5-|----------------|----------------||x2



Chorus(He's a player...)

E |----------------|----------------|----------------|----------------||

B |----------------|----------------|----------------|----------------||

G |7777777777777777|7777777777777777|----------------|----------------||

D |xxxxxxxxxxxxxxxx|xxxxxxxxxxxxxxxx|5555555555555555|7777777777777777||

A |5555555555555555|5555555555555555|5555555555555555|7777777777777777||

E |----------------|----------------|3333333333333333|5555555555555555||



Chorus 2 (Life just sucks...)

E |1514------------||

B |----15----------||

G |-------121212---||

D |----------------||

A |----------------||

E |----------------||x6



Interlude (Clean)

E |----------------|----------------|----------------|----------------||

B |----------------|----------------|----------------|----------------||

G |----------------|----------------|----------------|----------------||

D |4h5-4-2-0-4h5-4-|2--0-4h5-4-2----|4h5-4-2~--------|----------------||

A |----------------|--0-----------0-|------0~--------|----------------||

E |-------3--------|-------------3--|----------------|----------------||



Chorus 3 (Fuck this place...)

E |1514------------||

B |----15----------||

G |-------121212---||

D |----------------||

A |----------------||

E |----------------||x6

|

|Guitar 2

E |----------------|----------------|----------------|----------------||

B |----------------|----------------|----------------|----------------||

G |----------------|-------------7-7|777-777-777-----|----------------||

D |5-5555-555-555-7|7777-777-777-7-7|777-777-777-7-77|77-777-777-5-555||

A |5-5555-555-555-7|7777-777-777-5-5|555-555-555-7-77|77-777-777-5-555||

E |3-3333-333-333-5|5555-555-555----|------------5-55|55-555-555-3-333||



Guitar 2 cont'd

E |----------------|----------------||

B |----------------|----------------||

G |----------------|----------------||

D |5-555-555-7-7777|777-777---------||

A |5-555-555-7-7777|777-777---------||

E |3-333-333-5-5555|555-555---------||



Outro

E |----------------|----------------||

B |----------------|----------------||

G |----------------|----------------||

D |444---555444----|----------------||

A |---555----------|5---------------||

E |------------3355|----------------||

|

|Guitar 2

E |----------------|----------------||

B |----------------|----------------||

G |7~--------------|7---------------||

D |7~--------------|7---------------||

A |5~--------------|5---------------||

E |----------------|----------------||



_______________________________________________________________________________________________

7.Adam's Song



Intro(Clean)

E |----------------|----------------|----------------|----------------||

B |----------------|----------------|----------------|----------------||

G |----------------|----------------|----------------|----------------||

D |--4-0---4-0---4-|0---4-0---4-0---|4-0---4-0---4-0-|----------------||

A |2-----2-----0---|--0-------------|----------------|----------------||

E |----------------|--------3-----3-|----0-----3-----|----------------||x2



Verse (I never thought I'd die alone...)(Clean)

E |----------------|----------------|----------------|----------------||

B |----------------|----------------|----------------|----------------||

G |----------------|----------------|----------------|----------------||

D |77777777--------|----------------|77777777--------|----------------||

A |5555555555555555|9999999955555555|5555555555555555|9999999955555555||

E |--------33333333|7777777733333333|--------33333333|7777777733333333||x2

................ ................ ................ ................



Prechorus(Clean)

E |----------------|----------------|----------------|----------------||

B |----------------|----------------|----------------|----------------||

G |----0-----0-----|0-----0---------|----------------|----------------||

D |--7-----7-----9-|----9-----4-0---|4-0---4-0---4-0-|----------------||

A |5-----5-----7---|--7-----2-----2-|----------------|----------------||

E |----------------|----------------|----3-----3-----|----------------||x2



Chorus 1 (I never conquered rarely came...)(Clean)

E |----------------|----------------|----------------|----------------||

B |----------------|----------------|----------------|----------------||

G |7777777799999999|----------------|7777777799999999|----------------||

D |7777777799999999|9999999955555555|7777777799999999|9999999955555555||

A |5555555577777777|9999999955555555|5555555577777777|9999999955555555||

E |----------------|7777777733333333|----------------|7777777733333333||



Chorus 2

repeat the chorus with distortion



Preverse (Clean)

E |----------------|----------------|----------------|----------------||

B |----------------|----------------|----------------|----------------||

G |----------------|----------------|----------------|----------------||

D |--4-0---4-0---4-|0---4-0---4-0---|4-0---4-0---4-0-|----------------||

A |2-----2-----0---|--0-------------|----------------|----------------||

E |----------------|--------3-----3-|----0-----3-----|----------------||x2



Verse (I never thought I'd die alone...)(Clean)

E |----------------|----------------|----------------|----------------||

B |----------------|----------------|----------------|----------------||

G |----------------|----------------|----------------|----------------||

D |77777777--------|----------------|77777777--------|----------------||

A |5555555555555555|9999999955555555|5555555555555555|9999999955555555||

E |--------33333333|7777777733333333|--------33333333|7777777733333333||x2

................ ................ ................ ................



Prechorus(Clean)

E |----------------|----------------|----------------|----------------||

B |----------------|----------------|----------------|----------------||

G |----0-----0-----|0-----0---------|----------------|----------------||

D |--7-----7-----9-|----9-----4-0---|4-0---4-0---4-0-|----------------||

A |5-----5-----7---|--7-----2-----2-|----------------|----------------||

E |----------------|----------------|----3-----3-----|----------------||x2



Chorus 1 (I never conquered rarely came...)(Clean)

E |----------------|----------------|----------------|----------------||

B |----------------|----------------|----------------|----------------||

G |7777777799999999|----------------|7777777799999999|----------------||

D |7777777799999999|9999999955555555|7777777799999999|9999999955555555||

A |5555555577777777|9999999955555555|5555555577777777|9999999955555555||

E |----------------|7777777733333333|----------------|7777777733333333||



Chorus 2

repeat the chorus with distortion



Bridge (Piano solo)

E |----------------|----------------|----------------|----------------||

B |----------------|----------------|----------------|----------------||

G |----0~--0~------|--7--7--7--7--7-|----------------|----------------||

D |--4----4--4-----|-0--0--0--0--0-0|----------------|----------------||

A |5-----5--5------|5--5--5--5--5---|----------------|----------------||

E |-------------x16|--------------x4|----------------|----------------||



Chorus 3 (I never conquered rarely came)(Distortion)

E |----------------|----------------|----------------|----------------||

B |----------------|----------------|----------------|----------------||

G |7777777799999999|----------------|7777777799999999|----------------||

D |7777777799999999|9999999955555555|7777777799999999|9999999955555555||

A |5555555577777777|9999999955555555|5555555577777777|9999999955555555||

E |----------------|7777777733333333|----------------|7777777733333333||x2

|

|Guitar 2 (Could be piano; clean)

E |3-3-3-3-1-1-1-1-|0-0-0-0-1-1-1-1-|3-3-3-3-1-1-1-1-|0-0-0-0-1-1-1-1-||

B |-1-1-1-1-1-1-1-1|-1-1-1-1-1-1-1-1|-1-1-1-1-1-1-1-1|-1-1-1-1-1-1-1-1||

G |----------------|----------------|----------------|----------------||

D |----------------|----------------|----------------|----------------||

A |----------------|----------------|----------------|----------------||

E |----------------|----------------|----------------|----------------||x2



End on

E |----------------||

B |----------------||

G |7~--------------||

D |7~--------------||

A |5~--------------||

E |----------------||

____________________________________________________________________________________

8.All the Small Things



Intro

E |----------------|----------------|----------------|----------------||

B |----------------|----------------|----------------|repeat w/o G5-F5||

G |---55555555-1010|101010101010----|----------------|----------------||

D |---55555555-1010|101010101010-555|55555-7777-3-33-|----------------||

A |53-33333333--8-8|-8-8-8-8-8-8-555|55555-7777-3-33-|----------------||

E |31--------------|-------------333|33333-5555-1-11-|----------------||

....



Verse 1 (All the small things...)

E |----------------|----------------|----------------|----------------||

B |----------------|----------------|----------------|----------------||

G |----------------|----------------|----------------|----------------||

D |55555555--------|----------------|55555555--------|----------------||

A |3333333355555555|3333333355555555|3333333355555555|3333333355555555||

E |--------33333333|1111111133333333|--------33333333|1111111133333333||x2

................ ................ ................ ................



Prechorus (Say it ain't so, I will not go...)

E |----------------||

B |----------------||

G |--5~------------||

D |5-5~------------||

A |5-3~------------||

E |3---------------||



Chorus (Na na, na na, na na, na na na na...)

E |----------------|----------------|----------------|----------------||

B |----------------|----------------|----------------|----------------||

G |5555555555555555|----------------|5555555555555555|----------------||

D |xxxxxxxxxxxxxxxx|5555555533333333|xxxxxxxxxxxxxxxx|5555555533333333||

A |3333333333333333|5555555533333333|3333333333333333|5555555533333333||

E |----------------|3333333311111111|----------------|3333333311111111||



Preverse

E |----------------|----------------|----------------|----------------||

B |----------------|----------------|----------------|----------------||

G |5555555510101010|9-9-9-9---------|----------------|----------------||

D |55555555-x-x-x-x|x-x-x-x-55555555|7777-3-33-------|----------------||

A |33333333-8-8-8-8|7-7-7-7-55555555|7777-3-33-------|----------------||

E |----------------|--------33333333|5555-1-11-------|----------------||x2

....



Verse 2 (Late night, come home...)

E |----------------|----------------|----------------|----------------||

B |----------------|----------------|----------------|----------------||

G |----------------|----------------|----------------|----------------||

D |55555555--------|----------------|55555555--------|----------------||

A |3333333355555555|3333333355555555|3333333355555555|3333333355555555||

E |--------33333333|1111111133333333|--------33333333|1111111133333333||

................ ................ ................ ................



Prechorus (Say it ain't so, I will not go...)

E |----------------||

B |----------------||

G |--5~------------||

D |5-5~------------||

A |5-3~------------||

E |3---------------||



Chorus (Na na, na na, na na, na na na na...)

E |----------------|----------------|----------------|----------------||

B |----------------|----------------|----------------|----------------||

G |5555555555555555|----------------|5555555555555555|----------------||

D |xxxxxxxxxxxxxxxx|5555555533333333|xxxxxxxxxxxxxxxx|5555555533333333||

A |3333333333333333|5555555533333333|3333333333333333|5555555533333333||

E |----------------|3333333311111111|----------------|3333333311111111||



Bridge

E |----------------||

B |----------------||

G |5~--------------||

D |5~-3~-5~--------||

A |3~-3~-5~--------||

E |---1~-3~--------||x5

|

|Guitar 2 (After one of guitar 1)

E |----------------|----------------|----------------|----------------||

B |----------------|----------------|----------------|----------------||

G |5-5-5-5-5-5-5-5-|4-4-4-4-7-7-7-7-|----------------|----------------||

D |-5-5-5-5-5-5-5-5|-5-5-5-5-5-5-5-5|----------------|----------------||

A |----------------|----------------|----------------|----------------||

E |----------------|----------------|----------------|----------------||x4

................ ................



Chorus (Say it ain't so, I will not go...)

E |----------------|----------------|----------------|----------------||

B |----------------|----------------|----------------|----------------||

G |5555555555555555|----------------|5555555555555555|----------------||

D |xxxxxxxxxxxxxxxx|5555555533333333|xxxxxxxxxxxxxxxx|5555555533333333||

A |3333333333333333|5555555533333333|3333333333333333|5555555533333333||

E |----------------|3333333311111111|----------------|3333333311111111||



Chorus 2 (Say it ain't so, I will not go...)

E |----------------|----------------|----------------|----------------||

B |----------------|----------------|----------------|----------------||

G |5555555555555555|----------------|5555555555555555|----------------||

D |xxxxxxxxxxxxxxxx|55555555-333-333|xxxxxxxxxxxxxxxx|55555555-333-333||

A |3333333333333333|55555555-333-333|3333333333333333|55555555-333-333||

E |----------------|33333333-111-111|----------------|33333333-111-111||

.. .. .. ..



E |----------------||

B |----------------||

G |----------5~----||

D |33-3-33-3-5~----||

A |33-3-33-3-3~----||

E |11-1-11-1-------||

.. ..

_____________________________________________________________________________________________

9.The Party Song



Verse 1 (Do you want to come to a party?)

E |----------------|----------------|----------------|----------------||

B |----------------|----------------|----------------|----------------||

G |--------99-999-9|66-666-699-999--|--------99-999-9|66-666-699-91111||

D |99-999-999-999-9|66-666-699-999--|99-999-999-999-9|66-666-699-91111||

A |99-999-977-777-7|44-444-477-777--|99-999-977-777-7|44-444-477-7-9-9||

E |77-777-7--------|--------------x3|77-777-7--------|----------------||

.. ... ... ... . .. ... ... ... .. ... ... ... . .. ... ... .....



E |----------------||

B |----------------||

G |11--------------||

D |1199-999-99-----||

A |-999-999-99-----||

E |--77-777-77-----||

... ... .



Verse 2(And then in the backyard a terrible ska band...)

E |----------------|----------------|----------------|----------------||

B |----------------|----------------|----------------|----------------||

G |--------99-999-9|66-666-699-999--|--------99-999-9|66-666-699-91111||

D |99-999-9xx-xxx-x|66-666-6xx-xxx--|99-999-9xx-xxx-x|66-666-6xx-x-x-x||

A
Get this song at amazon.com      Ebay     Ringtones Ringtones  


Learn to play: Songwriting, Piano, Harmonica, Guitar
More Blink 182 lyrics available at Muzikum

Related Blink 182 Tabs

F k A Dog tabs
I Miss You Live tabs
Peggy Sue Live tabs
Toast And Bananas tabs
Dude Ranch Album tabs
Zulu tabs
Easy Target tabs
Action Live tabs
A Letter To Elise tabs
Violence tabs
Feeling This Live tabs
Dammit(done Right) tabs
Family Reunion tabs
All The Small Things (live) tabs
Blink 182 Album tabs
Reckless Abandon Solo tabs
Good Times tabs
Go tabs
The Country Song tabs
Everytime I Look For You tabs


Guitar Tabs









All tabs are property and copyright of their owners. All tabs provided for educational purposes only. Privacy Policy, DMCA

Online converter - videoconverter.com