Blink 182

Enema Of The State Full Album - Bass Tab Bass Tabs



More from Blink 182

Blink 182 Tabs
Blink 182 Chords
Blink 182 Bass
Blink 182 Lyrics




Album: Enema of The State
Artist: Blink 182
Bass Player: Mark Hoppus

1. DUMPWEED

INTRO x1
G------------------------------------------------------------------|
D------------------------------------------------------------------|
A------------------------------------------------------------------|
E--0~--00~---5~--55~-----------------------------------------------|

PRE-VERSE x2
G-----------------------------------------------------------------|
D-----------------------------------------------------------------|
A------------00000000-22222222------------------------------------|
E--00000000-------------------------------------------------------|

VERSE x2
G-----------------------------------------------------------------|
D-----------------------------------------------------------------|
A-----------22222----------22222----------------------------------|
E--00000000-------00000000----------------------------------------|

G-----------------------------------------------------------------|
D-----------------------------------------------------------------|
A--00000000-22222--00000000-22222---------------------------------|
E-----------------------------------------------------------------|

INTRO x1

CHORUS x1

G-----------------------------------------------------------------|
D-----------------------------------------------------------------|
A-----------22222222-00000000-22222222----------------------------|
E--00000000-------------------------------------------------------|

G-----------------------------------------------------------------|
D-----------------------------------------------------------------|
A-----------22222222-00000000--2-2--------------------------------|
E--00000000-------------------------------------------------------|

PRE-VERSE x2

VERSE x1

INTRO x1

CHORUS x2

VERSE x2

OUTRO x2 2nd time let last note ring
g-----------------------------------------------------------------|
d-----------------------------------------------------------------|
a-----------22222----------22222----------------------------------|
e--00000000-------00000000----------------------------------------|

G------------------------------------------------------------------------|
D------------------------------------------------------------------------|
A------------------------------------------------------------------------|
E--00000000-22222--00000000-22222----------------------------------------|
-------------------------------------------------------------------------|
2. DON'T LEAVE ME

INTRO x2
G-----------------------------------------------------------------|
D-----------------------------------------------------------------|
A-xxxx-0-0-0-0-0-xxxx-5-5-5-5-5-xxxx-2-2-2-2-2--5-5-5-5--7-7-7-7--|
E-----------------------------------------------------------------|

VERSE
G--------------------------------------------------------------------|
D--------------------------------------------------------------------|
A-0-0-0-0-0-0-0-0--5-5-5-5-5-5-5-5--2-2-2-2-2-2-2-2-5-5-5-5-5-5-5-5--|
E--------------------------------------------------------------------|

CHORUS x3
G--------------------------------------|
D--------------------------------------|
A-0-0-0-0--2-2-2-2--5-5-5-5--7-7-7-7---|
E--------------------------------------|

CHORUS CONT'D AFTER x3
G-------------------------------|
D-------------------------------|
A-0-0-0-0--2-2-2-2--5-5-5-5-----|
E-------------------------------|

VERSE x2

CHORUS x3

CHORUS CONT'D

SOLO
G-------------------------------------------|
D------------9-9-9-9--7-7-7-7-7-7-7-7-7-7---|
A-0-0-0-0-0--7-7-7-7--5-5-5-5-5-5-5-5-5-5---|
E-------------------------------------------|

CHORUS X3

CHORUS CONT'D

------------------------------------------------------------------------
3. ALIENS EXIST

INTRO
G--------------------------------|
D4-4-4-4-4-4-4-4-----------------|
A2-2-2-2-2-2-2-2-4-4-4-4-6-6-6-6-|
E--------------------------------|

VERSE
G----------------------------------------------------------------|
D----------------------------------------------------------------|
A2-2-2-2-2-2-2-2-------------------------------------------------|
E---------------2-2-2-2-2-2-2-2-4-4-4-4-4-4-4-4-0-0-0-0-0-0-0-0--|x2

THEN
G------------------------------------------------|
D------------------------------------------------|
A-2-2-2-2-2-2-2-2--------------------------------|
E-----------------2-2-2-2-2-2-2-2-4-4-4-4-4-4-4-4|

VERSE FILL 1
G-----------------|
D-----------------|
A-----------------|
E-0-0-0-0-0-0-0-0-|

INTERLUDE 1
|-------------------------------------------------------------------|
|-------------------------------------------------------------------|
|2-2-2-2-2---2-2--2-------------------------------------------------|
|-------------------0-0-0-0---0-0--0-4-4-4-4---4-4--4-0-0-0-0---0-0-|

|-------------------------------------------------------------------|
|-------------------------------------------------------------------|
|--2-2-2-2---2-2--2-------------------------------------------------|
|0------------------0-0-0-0---0-0--0-4-4-4-4---4-4--4-0-0-0-0---0-0-|

VERSE

VERSE FILL 2
G-----------------|
D-----------------|
A-----------------|
E-0---------------|

CHORUS 1 X2
G--------------------------------------------------------------------|
D--------------------------2-2-2-2-----------------------------------|
A-2-2-2-2-2-2-2-2--2-2-2-2-------------------------------------------|
E-----------------------------------2-2-2-2-2-2-2-2--2-2-2-2-2-2-2-2-|

CHORUS 2 X2
G--------------------------------------------------------------------|
D--------------------------------------------------------------------|
A--------------------------------------------------------------------|
E-4-4-4-4-4-4-4-4--4-4-4-4-2-2-2-2--0-0-0-0-0-0-0-0--0-0-0-0-0-0-0-0-|

POST-CHORUS
G--------------------------------------------------------------------|
D-----------------------------------4~~~~~~~~~~~~~~~-----------------|
A-----------------------------------2~~~~~~~~~~~~~~~-----------------|
E-2---------------0--------------------------------------------------|

G--------------------------------|
D--------------------------------|
A--------------------------------|
E-2---------------0--------------|

INTERLUDE 1

VERSE

VERSE FILL 2

CHORUS 1 X2

CHORUS 2 X2

POST-CHORUS

INTERLUDE 2X2
G--------------------------------------------------------------------|
D--------------------------------------------------------------------|
A--------------------------------------------------------------------|
E-4-4-4-4-4-4-4-4--4-4-4-4-4-4-4-4--2-2-2-2-2-2-2-2--2-2-2-2-2-2-2-2-|

G--------------------------------------------------------------------|
D--------------------------------------------------------------------|
A----------------------------------2-2-2-2-2-2-2-2-------------------|
E-0-0-0-0-0-0-0-0--0-0-0-0-0-0-0-0-------------------2-2-2-2-2-2-2-2-|

Interlude 3
G--------------------------------------------------------------------|
D--------------------------------------------------------------------|
A--------------------------------------------------------------------|
E-4-4-4-4-4-4-4-4--4-4-4-4-4-4-4-4--2-2-2-2-2-2-2-2--2-2-2-2-2-2-2-2-|

G--------------------------------------------------------------------|
D--------------------------------------------------------------------|
A-----------------------------------2-2-2-2-2-2-2-2--4-4-4-4-4-4-4-4-|
E-0-0-0-0-0-0-0-0--0-0-0-0-0-0-0-0-----------------------------------|

G--------------------------------------------------------------------|
D--------------------------------------------------------------------|
A-6-6-6-6-6-6-6-6---6-6-6-6-6-6-6-6-9-9-9-9-9-9-9-9--9-9-9-9-9-9-9-9-|
E--------------------------------------------------------------------|

G--------------------------------------------------------------------|
D----------------------------------------------------4-4-4-4-4-------|
A-7-7-7-7-7-7-7-7--7-7-7-7-7-7-7-7--2-2-2-2-2-2-2-2------------------|
E--------------------------------------------------------------------|

CHORUS 1 X2

CHORUS 2 X2

Outro
G-----------------------------------------------------------------|
D-----------------------------------------------------------------|
A---------------------------------2~~~~~~~~~~~~~~~----------------|
E-2---------------0-----------------------------------------------|

G---------------------------------------------------------------|
D-------------------------------4~~~~~~~~~~~~~~~----------------|
A-9---------------7-------------2~~~~~~~~~~~~~~~----------------|
E---------------------------------------------------------------|

------------------------------------------------------------------------
4. GOING AWAY TO COLLEGE

INTRO X2
G---------------------------------------------|
D---------------------------------------------|
A-22222222------------------------------------|
E----------0000-2222--------------------------|
VERSE X4
G---------------------------------------------|
D----------2222-4444--------------------------|
A-22222222------------------------------------|
E---------------------------------------------|

INTRO X2

VERSE X4

CHORUS X3
G:---------------------------------------------|
D:-1111-2222-----------------------------------|
A:-----------2222------------------------------|
E:----------------2222-------------------------|

OUTRO OF CHORUS X1
G:---------------------------------------------|
D:-1111-2222-----------------------------------|
A:-----------2222------------------------------|
E:----------------2----------------------------|

INTRO X2

VERSE X4

CHORUS X3

OUTRO OF CHORUS X1

BRIDGE X1
G:----------------------------------------------|
D:--------2--------2h4------------1-2-----4---2-|
A:-2---------------------2----2h4---------------|
E:----------------------------------------------|

CHORUS X3

OUTRO OF CHORUS X1

------------------------------------------------------------------------
5. WHATS MY AGE AGAIN

INTRO/VERSE
G-----------------------------------------|
D-----------------------------------------|
A--2-2-2-2-------------4-4-4-4---6-6-6-6--| x6
E------------2-2-2-2----------------------|

PRE-CHORUS
G-----------------------------------------------------------|
D-----------------------------------------------------------|
A--2-2-2-2-------------4-4-4-4---6-6-6-6-6-6---4-4-4-4-4-4--|
E------------2-2-2-2----------------------------------------|

CHORUS
G-----------------------|
D-----------------------|
A------4-4---6-6---2-2--| X3
E--2--------------------|

CHORUS CONT'D
G-------------------------------------------------|
D-------------------------------------------------|
A------4-4---6-6-6-6-6-6-6-6---4-4-4-4-4-4-4---2--|
E--2----------------------------------------------|
(guitar will play intro once really fast)

VERSE X3

CHORUS X3

CHORUS CONT'D

BRIDGE X6
G-----------------------------------------------------------------|
D-----------------------------------------------------------------|
A--66666666-44444444-22222222-44444444----------------------------|
E ----------------------------------------------------------------|

CHORUS X3----------------|
|DO THESE X3
CHORUS CONT'D X1---------|

------------------------------------------------------------------------

6. DYSENTARY GARY

INTRO
G----------------------------------------|
D----------------------------------------|
A-5-5-5-5-5-5-5-5-5-5--------------------| (X2)
E--------------------3-3-3-3-5-5-5-5-5-5-|

VERSE
G-------------------------------------------------------|
D-----------------------5-------5--7-------7-------7----|
A-5-------5--5-------5---5-5-5-5----7-7-7-7-7-7-7-7-7-5-|
E--5-5-5-5----5-5-5-5-----------------------------------|

CONT'D
G---------------------------------------------------------|
D---------------------------------5-------5h4h5-7-------7-|
A-5-------5-5h7h5-5-------5-5h7h5--5-5-5-5-------7-7-7-7--|
E--5-5-5-5---------5-5-5-5--------------------------------|

CONT'D
G-------------|
D--------7----|
A-7-7-7-7-7-5-|
E-------------|

PRE-CHORUS
G-------------------------------------------|
D----------------5-5-5-5-7-7----------------|
A-5-5-5-5-5-5-9-7-----------2-4-5-5-5-5-5-5-|
E-------------------------------------------|

CHORUS
G------------------------------------------------|
D-5-5-5-4h5h4-7-7-7-7h9h7------------------------|
A-------------------------5-5-5-5h4h5------------|
E------------------------------------7-7-7-5h7h5-|

CONT'D
G------------------------|
D------------------------|
A----------------------5-|
E-3-3-3-2h3h2-5-5-5-7-7--|

------------------------------------------------------------------------

7. ADAMS SONG

INTRO (GUITAR ONLY)

VERSE X4
G------------------------------------------|
D------------------------------------------|
A-33333333---------------------------------|
E-------------11111111--55555555--11111111-|

BREAK

CHORUS PRT. 1 X1
G----------------------------------------|
D----------------------------------------|
A-33333333--55555555---------------------|
E---------------------55555555--11111111-|

CHORUS PRT. 2 X2
G--------------------------------------|
D-----------------------------33333333-|
A-33333333--55555555-------------------|
E--------------------55555555----------|
CHORUS PRT. 1 x2

BREAK

VERSE x4

BREAK

Chorus pt.1 x1
Chorus pt.2 x1
Chorus pt.1 x2

BRIDGE
G-------------5--5-5----7--7-7---5--5-5-|
D---5--5-5--33-33-3---55-55-5--33-33-3--|
A-33-33-3-------------------------------|
E---------------------------------------|

G-------------5--5-5----7--7-7---9--5-| x3
D---5--5-5--33-33-3---55-55-5--77-33--|
A-33-33-3-----------------------------|
E-------------------------------------|

Chorus pt.1 x1
Chorus pt.2 x1
Chorus pt.1 x2


------------------------------------------------------------------------

8. ALL THE SMALL THINGS

INTRO x1
G-------------------|
D-------------------|
A-------------------|
E----3------1-------|

INTRO PART 2 x2
G-------------------------------------------|
D-------------------------------------------|
A-33333333-88888888-------------------------|
E-------------------33333333(PAUSE)11111111-|

VERSE X4
G------------------------------------|
D------------------------------------|
A-33333333---------------------------|
E-------- 33333333-11111111-33333333-|

PRE-CHORUS X1
G---------------------------------------------|
D---------------------------------------------|
A-33333333-33333333-1010101010101010-88888888-|
E---------------------------------------------|

CHORUS X2
G------------------------------------|
D------------------------------------|
A-33333333-33333333------------------|
E-------------------33333333-1111111-|

MAIN RIFF x2
G---------------------------------------------|
D---------------------------------------------|
A-33333333-8888-7777--------------------------|
E--------------------33333333-(PAUSE)11111111-|

VERSE X2

PRE-CHORUS

CHORUS X2

INTERLUDE X4
G-----------------------------|
D-----------------------------|
A--3-------------8---------10-|
E-----------------------------|

CHORUS x2

OUTRO x1
G-----------------------------------------------|
D-----------------------------------------------|
A-3333333-333333333-----------------------------|
E------------------33333333--1~---5~------------|

G------------------------------------------|
D------------------------------------------|
A-33333333---------------------------------|
E---------33333333--1~---5~---1~---5~---3~-|

------------------------------------------------------------------------

9. PARTY SONG-THNX CAUGHTOFFGUARD FOR THIS

Verse
G|-----------------------------------|
D|-----------------------------------|
A|---------77777777-44444444-77777777|x4
E|77777777---------------------------|

G|----------------------------------------------------|
D|----------------------------------------------------|
A|---------77777777-44444444-77777777-9999999999999999|x1
E|77777777--------------------------------------------|

Repeat Verse

Chorus
G|-----------------------------------|
D|-----------------------------------|
A|-----------------44444444-77777777-|
E|7777777777777777-------------------|

Repeat Pre Chorus Part 2

Repeat Chorus

Repeat Verse

Repeat Pre Chorus

Repeat Chorus

Repeat Pre Chorus Part 2

Repeat Chorus till end

------------------------------------------------------------------------

10. MUTT


INTRO
G----9----9----9----9---9---9---9----9-----------------------------------|
D-77---77---77---77--77--77--77--77----77---7---7---7---7---7---7--7---7-|
A ---------------------------------------55--55---55--55--55--55--55-55--|
E------------------------------------------------------------------------|

PRE-VERSE
G--------------------------------------------------------|
D---------------------------0000-0000-0000-44--22--------|
A-0000-0000-0000---22--44--------------------------------|
E--------------------------------------------------------|

G---------------------------------------------------------|
D---------------------------0000-0000-2222--00--22h-------|
A-0000-0000-0000---22--44---------------------------------|
E---------------------------------------------------------|


VERSE
G---------------------------------------------------------|
D---------------4444--2222-----------0000-0000-0000-2222--|
A--0000-00-24---------------(x4)then----------------------|
E---------------------------------------------------------|

BREAK X6
G----------------------------------------------2-----------------------|
D-------------------------------------4------0---0-2-22----------------|
A-0-00---7-9-7--0-00---7-9-7----2-22----2------------------------------|
E----------------------------------------------------------------------|

INTERLUDE
G--------------------------------------------|
D-------------------0-0----------------------|
A-----0-0----2-2------------4-4--------------|
E--------------------------------------------|

BREAK X6

INTERLUDE

BREAKX6

OUTRO X2
G-------------------------|
D------------0h-----------|
A--0h--2h-------4h---0~~~-|
E-------------------------|

------------------------------------------------------------------------

11. WENDY CLEAR

INTRO x1
G-------------------------------------------------------------|
D-------------------------------------------------------------|
A------------------8888888888888888-1010101010101010-88888888-|
E-8888888888888888--------------------------------------------|

VERSE x2
G----------------------------------------------------------|
D----------------------------------------------------------|
A-3333333333333333------------------------3333333333333333-|
E------------------3-11111111-5555-1111-3------------------|

PRE-CHORUS x1
G-----------------------------------------------|
D-----------------------------------------------|
A-10101010-8888----------10101010-8888----------|
E---------------88888888---------------88888888-|

CHORUS x1
G-------------------------------|
D-------------------------------|
A-----------3333----------------|
E-5555-1111------3333-5555-1111-|

INTRO x1

VERSE x2

PRE-CHORUS x1

CHORUS x1

INTERLUDE x2
G-------------------------------|
D-------------------------------|
A-------33------------333333333-|
E-55-11----33-55-1111-----------|

2ND INTRO X1
G----------------------------------------------------------------------|
D----------------------------------------------------------------------|
A----------8888888888888888-1010101010101010-88888888------------------|
E-88888888--------------------------------------------8888888888888888-|

OUTRO x1
G-----------------------------------------------------------|
D-----------------------------------------------------------|
A----10101010-8888----------10101010-8888-------------------|
E-3/---------------88888888---------------88888888-3~-1~-8~-|

------------------------------------------------------------------------

12. ANTHEM

INTRO
G----------------------------------------------------------|
D----------------------------------------------------------|
A--3333------3333------3333--55555555-00000000-88888888----|
E----------------------------------------------------------|

G----------------------------------------------------------|
D----------------------------------------------------------| (x5)
A--33333333-55555555-00000000-88888888---------------------|
E----------------------------------------------------------|

G----------------------------------------------------------|
D----------------------------------------------------------|
A--33333333-00000000---------33333333-00000000-------------|
E--------------------11111111-------------------1----------|

VERSE X2
G----------------------------------------------------------|
D----------------------------------------------------------|
A--33333333-00000000---------33333333-00000000-88888888----|
E--------------------11111111------------------------------|

BREAK
G--------------------|
D----14-----12----10-|
A--12--12/10--10/8---|
E--------------------|

VERSE X2

BREAK

CHORUS
G------------------------------------------------------------|
D------------------------------------------------------------|
A-----------3333--------------3333----0000----3333----0000---|
E--0000-1111----3333-0000-1111----3333----1111----3333-----1-|

G----------------------------------------------------------|
D----------------------------------------------------------|
A--33333333-00000000---------33333333-00000000-------------|
E--------------------11111111------------------(1)---------|

VERSE

BREAK

CHORUS FIRST PART

2ND BREAK
G-----------------------------|
D-----------------------------| (x3)
A--33333333-00000000----------|
E-------------------11111111--|

G---------------------------------17----17----17----17----17----17----|
D------------------------------17-17-17-17-17-17-17-17-17-17-17-17-17-|
A--33333333-00000000-888888888----------------------------------------|
E---------------------------------------------------------------------|

CHORUS FIRST PART

OUTRO
G----------------------------------------------------------|
D----------------------------------------------------------|
A--33333333-00000000---------------------------------------| (X2)
E--------------------11111111------------------------------|

G----------------------------------------------------------|
D----------------------------------------------------------|
A--33333333-55555555-00000000------------------------------|
E-----------------------------11111111---------------------|

G----------------------------------------------------------|
D----------------------------------------------------------|
A--33333333-55555555-00000000------------------------------|
E-----------------------------(1)--------------------------|



Get this song at amazon.com      Ebay     Ringtones Ringtones  


Learn to play: Songwriting, Piano, Harmonica, Guitar
More Blink 182 lyrics available at Muzikum

Related Blink 182 Bass Tabs

Here\'s Your Letter bass
A Letter To Elise bass
Aliens Exist bass
Tv bass
Pathetic Live bass
Carousel Live bass
Always (perfect) bass
Cheshire Cat bass
Let Her Go bass
Online Songs bass
Satan Tune bass
Family Reunion (clean:p) bass
D***it bass
Josie! 100% Correct bass
Dysentery Gary bass
Another Girl Another Planet bass
All The Small Things (beginners) bass
All Teh Small Things bass
Shut Up bass
Alone bass


Guitar Tabs









All tabs are property and copyright of their owners. All tabs provided for educational purposes only. Privacy Policy, DMCA

Online converter - videoconverter.com