Blink 182

Dysentery Gary (the Correct Bridge) Bass Tabs



More from Blink 182

Blink 182 Tabs
Blink 182 Chords
Blink 182 Bass
Blink 182 Lyrics



Aloha! It's a beautifull song to play . Mark play a very nice bass line ( I think
that itīs the most dificult Blinkīs song to play).I made some variations
in the bridge.
Enjoy it! .... Let's go POKERFACE!



INTRO:


G:------------
D:------------
A:-5~---5-----
E:------------

G:--------------------
D:-----------5555-----
A:--55555555---------- x2
E:---------------5555-


VERSE:


G:--------------------------------------------------------
D:---------------------5-0000-5--7------7------7----------
A:-5-0000-5--5-0000-5--------------7777---7777---7-5------
E:--------------------------------------------------------

G:-----------------------------------------------------------------
D:-------------------------------5-0000-5p4h5--7------7------7-----
A:-5-0000-5-5h7p5-5-0000-5-5h7p5-----------------7777---7777---7-5-
E:-----------------------------------------------------------------


PRE-CHORUS:


G:--------------------------------------------
D:--------------------------------------------
A:--5-5-5-5-5-5-9-7---------------------------
E:------------------3-3-3-3-5-5-7-9-----------

G:------------------------------------------------------------------
D:----------------------------------5-5-5-5-5-5-5-5-7-7-7-7-7-7-7-7-
A:--5-5-5-5-5-5-5-5-5-5-5-5-9-9-7-7---------------------------------
E:------------------------------------------------------------------


CHORUS:

G:------------------------------------------------------------------------------
D:-55555-4h5p4-777777h9p7-------------------------------------------------------
A:-----------------------5555554h5p4-------------------------------5~-----------
E:-----------------------------------77777-5h7p5-33333p2h3p2-555579-------------


INTRO:

G:-------------------
D:-------5555--------
A:-5~----------------
E:-----------5555----

G:--------------------
D:-----------5555-----
A:--55555555----------
E:---------------5555-



VERSE:


G:--------------------------------------------------------
D:---------------------5-0000-5--7------7------7----------
A:-5-0000-5--5-0000-5--------------7777---7777---7-5------
E:--------------------------------------------------------

G:----------------------------------------------------------------
D:-------------------------------5-0000-5p4h5--7------7------7----
A:-5-0000-5-5h7p5-5-0000-5-5h7p5-----------------7777---7777--7-5-
E:----------------------------------------------------------------


PRE-CHORUS:


G:--------------------------------------------
D:--------------------------------------------
A:--5-5-5-5-5-5-9-7---------------------------
E:------------------3-3-3-3-5-5-7-9-----------

G:--------------------------------------------
D:--------------------------------------------
A:--5-5-5-5-5-5-9-7---------------------------
E:------------------3-3-3-3-5-5-7-9-----------

G:------------------------------------------------------------------
D:----------------------------------5-5-5-5-5-5-5-5-7-7-7-7-7-7-7-7-
A:--5-5-5-5-5-5-5-5-5-5-5-5-9-9-7-7---------------------------------
E:------------------------------------------------------------------

CHORUS:

G:------------------------------------------------------------------------------
D:-55555-4h5p4-777777h9p7-------------------------------------------------------
A:-----------------------5555554h5p4-------------------------------5~-----------
E:-----------------------------------77777-5h7p5-33333p2h3p2-555579-------------


BRIDGE:

G:-------------------------------------------------
D:---------------------5-4-7--------------------5~-
A:--5-7-5--5-----5-7-5-------5-7-5--5-----5-7-5----
E:-----------0-5----------------------0-5----------


CHORUS:

G:------------------------------------------------------------------------------
D:-55555-4h5p4-777777h9p7-------------------------------------------------------
A:-----------------------5555554h5p4-------------------------------5~-----------
E:-----------------------------------77777-5h7p5-33333p2h3p2-555579-------------




END:


G:-------------------
D:-------------------
A:--5~---------------
E:-------------------



Get this song at amazon.com      Ebay     Ringtones Ringtones  


Learn to play: Songwriting, Piano, Harmonica, Guitar
More Blink 182 lyrics available at Muzikum

Related Blink 182 Bass Tabs

Dammit Live (warped Tour) bass
Feels So Good bass
Does My Breath Smell bass
Wont Be Home For Christmas bass
Stockholm Syndrome bass
Instrumental bass
What Went Wrong (tabbed For Bass) bass
Snake Charmer bass
Violence Piano Part On Bass bass
Dick Lips bass
Give Me One Good Reason bass
Damnit W/intro bass
Online Song bass
Pathetic Live bass
Family Reunion(live) bass
Dysentery Gary (the Correct Bridge) bass
Dont Tell Me Its Over bass
Anthem Prt Ii bass
Adams Song bass
Happy Holidays You Bastard bass


Guitar Tabs









All tabs are property and copyright of their owners. All tabs provided for educational purposes only. Privacy Policy, DMCA