Blink 182

Dumpweed Bass Tabs



More from Blink 182

Blink 182 Tabs
Blink 182 Chords
Blink 182 Bass
Blink 182 Lyrics




DUMPWEED BASS TAB
STANDARD TUNING (EADG)


INTRO
E5
G|-----------------|-----------------|-----------------|-----------------|
D|-----------------|-----------------|-----------------|-----------------|
A|-----------------|-----------------|-----------------|-----------------|
E|-0---------------|---------------0-|-0---------------|-----------------|
1 + 2 + 3 + 4 + 1 + 2 + 3 + 4 + 1 + 2 + 3 + 4 + 1 + 2 + 3 + 4 +

A5
G|-----------------|-----------------|-----------------|-----------------|
D|-----------------|-----------------|-----------------|-----------------|
A|-0---------------|---------------0-|-0---------------|-----------------|
E|-----------------|-----------------|-----------------|-----------------|
1 + 2 + 3 + 4 + 1 + 2 + 3 + 4 + 1 + 2 + 3 + 4 + 1 + 2 + 3 + 4 +

E5 A5 B5 A5
G|-----------------|-----------------|-----------------|-----------------|
D|-----------------|-----------------|-----------------|-----------------|
A|-----------------|-0-0---0-0-0-0-0-|-2-2-2-2-2-2-2-2-|-2-2---2-2-0-0-0-|
E|-0-0-0-0-0-0-0-0-|-----------------|-----------------|-----------------|
1 + 2 + 3 + 4 + 1 + 2 + 3 + 4 + 1 + 2 + 3 + 4 + 1 + 2 + 3 + 4 +

E5 A5 B5 A5
G|-----------------|-----------------|-----------------|-----------------|
D|-----------------|-----------------|-----------------|-----------------|
A|-----------------|-0-0---0-0-0-0-0-|-2-2-2-2-2-2-2-2-|-2-2---2-2-0-0-0-|
E|-0-0-0-0-0-0-0-0-|-----------------|-----------------|-----------------|
1 + 2 + 3 + 4 + 1 + 2 + 3 + 4 + 1 + 2 + 3 + 4 + 1 + 2 + 3 + 4 +

VERSE

E5 B5 E5 B5
G|-----------------|-----------------|-----------------|-----------------|
D|-----------------|-----------------|-----------------|-----------------|
A|-----------------|-2-2-2-2-2-------|-----------------|-2-2-2-2-2-------|
E|-0-0-0-0-0-0-0-0-|-----------------|-0-0-0-0-0-0-0-0-|-----------------|
1 + 2 + 3 + 4 + 1 + 2 + 3 + 4 + 1 + 2 + 3 + 4 + 1 + 2 + 3 + 4 +

A5 B5 A5 B5
G|-----------------|-----------------|-----------------|-----------------|
D|-----------------|-----------------|-----------------|-----------------|
A|-0-0-0-0-0-0-0-0-|-2-2-2-2-2-------|-0-0-0-0-0-0-0-0-|-2-2-2-2-2h4-2---|
E|-----------------|-----------------|-----------------|-----------------|
1 + 2 + 3 + 4 + 1 + 2 + 3 + 4 + 1 + 2 + 3 + 4 + 1 + 2 + 3 + 4 +

E5 B5 E5 B5
G|-----------------|-----------------|-----------------|-----------------|
D|-----------------|-----------------|-----------------|-----------------|
A|-----------------|-2-2-2-2-2-------|-----------------|-2-2-2-2-2-------|
E|-0-0-0-0-0-0-0-0-|-----------------|-0-0-0-0-0-0-0-0-|-----------------|
1 + 2 + 3 + 4 + 1 + 2 + 3 + 4 + 1 + 2 + 3 + 4 + 1 + 2 + 3 + 4 +

A5 B5 A5 B5
G|-----------------|-----------------|-----------------|-----------------|
D|-----------------|-----------------|-----------------|-----------------|
A|-0-0-0-0-0-0-0-0-|-2-2-2-2-2-------|-0-0-0-0-0-0-0-0-|-2-2-2-2-2h4-2---|
E|-----------------|-----------------|-----------------|-----------------|
1 + 2 + 3 + 4 + 1 + 2 + 3 + 4 + 1 + 2 + 3 + 4 + 1 + 2 + 3 + 4 +

INTERLUDE

E5
G|-----------------|-----------------|-----------------|-----------------|
D|-----------------|-----------------|-----------------|-----------------|
A|-----------------|-----------------|-7---------------|-----------------|
E|-0---------------|-----------------|-0---------------|-----------------|
1 + 2 + 3 + 4 + 1 + 2 + 3 + 4 + 1 + 2 + 3 + 4 + 1 + 2 + 3 + 4 +

A5
G|-----------------|-----------------|-----------------|-----------------|
D|-----------------|-----------------|-7-------7-------|-9---------------|
A|-0---------------|-----------------|-----0-------0---|---------9-------|
E|-----------------|-----------------|-----------------|-----7---7-------|
1 + 2 + 3 + 4 + 1 + 2 + 3 + 4 + 1 + 2 + 3 + 4 + 1 + 2 + 3 + 4 +

CHORUS


E5 B5 A5 B5
G|-----------------|-----------------|-----------------|-----------------|
D|-----------------|-----------------|-----------------|-----------------|
A|-----------------|-2-2-2-2-2-2-2-2-|-0-0-0-0-0-0-0-0-|-2-2-2-2-2-2-2-2-|
E|-0-0-0-0-0-0-0-0-|-----------------|-----------------|-----------------|
1 + 2 + 3 + 4 + 1 + 2 + 3 + 4 + 1 + 2 + 3 + 4 + 1 + 2 + 3 + 4 +

E5 B5 A5 B5
G|-----------------|-----------------|-----------------|-----------------|
D|-----------------|-----------------|-----------------|-----------------|
A|-----------------|-2-2-2-2-2-2-4---|-0-0-0-0-0-0-0-0-|-2-------2-------|
E|-0-0-0-0-0-0-0-0-|-----------------|-----------------|-----------------|
1 + 2 + 3 + 4 + 1 + 2 + 3 + 4 + 1 + 2 + 3 + 4 + 1 + 2 + 3 + 4 +

INTERLUDE

E5 A5 B5 A5
G|-----------------|-----------------|-----------------|-----------------|
D|-----------------|-----------------|-----------------|-----------------|
A|-----------------|-0-0---0-0-0-0-0-|-2-2-2-2-2-2-2-2-|-2-2---2-2-0-0-0-|
E|-0-0-0-0-0-0-0-0-|-----------------|-----------------|-----------------|
1 + 2 + 3 + 4 + 1 + 2 + 3 + 4 + 1 + 2 + 3 + 4 + 1 + 2 + 3 + 4 +

E5 A5 B5 A5
G|-----------------|-----------------|-----------------|-----------------|
D|-----------------|-----------------|-----------------|-----------------|
A|-----------------|-0-0---0-0-0-0-0-|-2-2-2-2-2-2-2-2-|-2-2---2-2-0-0-0-|
E|-0-0-0-0-0-0-0-0-|-----------------|-----------------|-----------------|
1 + 2 + 3 + 4 + 1 + 2 + 3 + 4 + 1 + 2 + 3 + 4 + 1 + 2 + 3 + 4 +

VERSE

E5 B5 E5 B5
G|-----------------|-----------------|-----------------|-----------------|
D|-----------------|-----------------|-----------------|-----------------|
A|-----------------|-2-2-2-2-2-------|-----------------|-2-2-2-2-2-------|
E|-0-0-0-0-0-0-0-0-|-----------------|-0-0-0-0-0-0-0-0-|-----------------|
1 + 2 + 3 + 4 + 1 + 2 + 3 + 4 + 1 + 2 + 3 + 4 + 1 + 2 + 3 + 4 +

A5 B5 A5 B5
G|-----------------|-----------------|-----------------|-----------------|
D|-----------------|-----------------|-----------------|-----------------|
A|-0-0-0-0-0-0-0-0-|-2-2-2-2-2-------|-0-0-0-0-0-0-0-0-|-2-2-2-2-2h4-2---|
E|-----------------|-----------------|-----------------|-----------------|
1 + 2 + 3 + 4 + 1 + 2 + 3 + 4 + 1 + 2 + 3 + 4 + 1 + 2 + 3 + 4 +

E5 B5 E5 B5
G|-----------------|-----------------|-----------------|-----------------|
D|-----------------|-----------------|-----------------|-----------------|
A|-----------------|-2-2-2-2-2-------|-----------------|-2-2-2-2-2-------|
E|-0-0-0-0-0-0-0-0-|-----------------|-0-0-0-0-0-0-0-0-|-----------------|
1 + 2 + 3 + 4 + 1 + 2 + 3 + 4 + 1 + 2 + 3 + 4 + 1 + 2 + 3 + 4 +

A5 B5 A5 B5
G|-----------------|-----------------|-----------------|-----------------|
D|-----------------|-----------------|-----------------|-----------------|
A|-0-0-0-0-0-0-0-0-|-2-2-2-2-2-------|-0-0-0-0-0-0-0-0-|-2-2-2-2-2h4-2---|
E|-----------------|-----------------|-----------------|-----------------|
1 + 2 + 3 + 4 + 1 + 2 + 3 + 4 + 1 + 2 + 3 + 4 + 1 + 2 + 3 + 4 +

INTERLUDE

E5
G|-----------------|-----------------|-----------------|-----------------|
D|-----------------|-----------------|-----------------|-----------------|
A|-----------------|-----------------|-7---------------|-----------------|
E|-0---------------|-----------------|-0---------------|-----------------|
1 + 2 + 3 + 4 + 1 + 2 + 3 + 4 + 1 + 2 + 3 + 4 + 1 + 2 + 3 + 4 +

A5
G|-----------------|-----------------|-----------------|-----------------|
D|-----------------|-----------------|-7-------7-------|-9---------------|
A|-0---------------|-----------------|-----0-------0---|---------9-------|
E|-----------------|-----------------|-----------------|-----7---7-------|
1 + 2 + 3 + 4 + 1 + 2 + 3 + 4 + 1 + 2 + 3 + 4 + 1 + 2 + 3 + 4 +

CHORUS


E5 B5 A5 B5
G|-----------------|-----------------|-----------------|-----------------|
D|-----------------|-----------------|-----------------|-----------------|
A|-----------------|-2-2-2-2-2-2-2-2-|-0-0-0-0-0-0-0-0-|-2-2-2-2-2-2-2-2-|
E|-0-0-0-0-0-0-0-0-|-----------------|-----------------|-----------------|
1 + 2 + 3 + 4 + 1 + 2 + 3 + 4 + 1 + 2 + 3 + 4 + 1 + 2 + 3 + 4 +

E5 B5 A5 B5
G|-----------------|-----------------|-----------------|-----------------|
D|-----------------|-----------------|-----------------|-----------------|
A|-----------------|-2-2-2-2-2-2-4---|-0-0-0-0-0-0-0-0-|-2-------2-------|
E|-0-0-0-0-0-0-0-0-|-----------------|-----------------|-----------------|
1 + 2 + 3 + 4 + 1 + 2 + 3 + 4 + 1 + 2 + 3 + 4 + 1 + 2 + 3 + 4 +

E5 B5 A5 B5
G|-----------------|-----------------|-----------------|-----------------|
D|-----------------|-----------------|-----------------|-----------------|
A|-----------------|-2-2-2-2-2-2-2-2-|-0-0-0-0-0-0-0-0-|-2-2-2-2-2-2-2-2-|
E|-0-0-0-0-0-0-0-0-|-----------------|-----------------|-----------------|
1 + 2 + 3 + 4 + 1 + 2 + 3 + 4 + 1 + 2 + 3 + 4 + 1 + 2 + 3 + 4 +

E5 B5 A5 B5
G|-----------------|-----------------|-----------------|-----------------|
D|-----------------|-----------------|-----------------|-----------------|
A|-----------------|-2-2-2-2-2-2-4---|-0-0-0-0-0-0-0-0-|-2-------2-------|
E|-0-0-0-0-0-0-0-0-|-----------------|-----------------|-----------------|
1 + 2 + 3 + 4 + 1 + 2 + 3 + 4 + 1 + 2 + 3 + 4 + 1 + 2 + 3 + 4 +

OUTRO

E5 B5 E5 B5
G|-----------------|-----------------|-----------------|-----------------|
D|-----------------|-----------------|-----------------|-----------------|
A|-----------------|-2-2-2-2-2-------|-----------------|-2-2-2-2-2-------|
E|-0-0-0-0-0-0-0-0-|-----------------|-0-0-0-0-0-0-0-0-|-----------------|
1 + 2 + 3 + 4 + 1 + 2 + 3 + 4 + 1 + 2 + 3 + 4 + 1 + 2 + 3 + 4 +

A5 B5 A5 B5
G|-----------------|-----------------|-----------------|-----------------|
D|-----------------|-----------------|-----------------|-----------------|
A|-0-0-0-0-0-0-0-0-|-2-2-2-2-2-------|-0-0-0-0-0-0-0-0-|-2-2-2-2-2-------|
E|-----------------|-----------------|-----------------|-----------------|
1 + 2 + 3 + 4 + 1 + 2 + 3 + 4 + 1 + 2 + 3 + 4 + 1 + 2 + 3 + 4 +

E5 B5 E5 B5
G|-----------------|-----------------|-----------------|-----------------|
D|-----------------|-----------------|-----------------|-----------------|
A|-----------------|-2-2-2-2-2-------|-----------------|-2-2-2-2-2-------|
E|-0-0-0-0-0-0-0-0-|-----------------|-0-0-0-0-0-0-0-0-|-----------------|
1 + 2 + 3 + 4 + 1 + 2 + 3 + 4 + 1 + 2 + 3 + 4 + 1 + 2 + 3 + 4 +

A5 B5 A5 B5
G|-----------------|-----------------|-----------------|-----------------|
D|-----------------|-----------------|-----------------|-----------------|
A|-0-0-0-0-0-0-0-0-|-2-2-2-2-2-------|-0-0-0-0-0-0-0-0-|-2-2-2-2-2-------|
E|-----------------|-----------------|-----------------|-----------------|
1 + 2 + 3 + 4 + 1 + 2 + 3 + 4 + 1 + 2 + 3 + 4 + 1 + 2 + 3 + 4 +

E5 B5 E5 B5
G|-----------------|-----------------|-----------------|-----------------|
D|-----------------|-----------------|-----------------|-----------------|
A|-----------------|-2-2-2-2-2-------|-----------------|-2-2-2-2-2-------|
E|-0-0-0-0-0-0-0-0-|-----------------|-0-0-0-0-0-0-0-0-|-----------------|
1 + 2 + 3 + 4 + 1 + 2 + 3 + 4 + 1 + 2 + 3 + 4 + 1 + 2 + 3 + 4 +

A5 B5 A5 B5
G|-----------------|-----------------|-----------------|-----------------|
D|-----------------|-----------------|-----------------|-----------------|
A|-0-0-0-0-0-0-0-0-|-2-2-2-2-2-------|-0-0-0-0-0-0-0-0-|-2-2-2-2-2-------|
E|-----------------|-----------------|-----------------|-----------------|
1 + 2 + 3 + 4 + 1 + 2 + 3 + 4 + 1 + 2 + 3 + 4 + 1 + 2 + 3 + 4 +

E5 B5 E5 B5
G|-----------------|-----------------|-----------------|-----------------|
D|-----------------|-----------------|-----------------|-----------------|
A|-----------------|-2-2-2-2-2-------|-----------------|-2-2-2-2-2-------|
E|-0-0-0-0-0-0-0-0-|-----------------|-0-0-0-0-0-0-0-0-|-----------------|
1 + 2 + 3 + 4 + 1 + 2 + 3 + 4 + 1 + 2 + 3 + 4 + 1 + 2 + 3 + 4 +

A5 B5 A5 B5
G|-----------------|-----------------|-----------------|-----------------|
D|-----------------|-----------------|-----------------|-----------------|
A|-0-0-0-0-0-0-0-0-|-2-2-2-2-2-------|-0-0-0-0-0-0-0-0-|-2-2-2-2-2-------|
E|-----------------|-----------------|-----------------|-----------------|
1 + 2 + 3 + 4 + 1 + 2 + 3 + 4 + 1 + 2 + 3 + 4 + 1 + 2 + 3 + 4 +



Get this song at amazon.com      Ebay     Ringtones Ringtones  


Learn to play: Songwriting, Piano, Harmonica, Guitar
Also available at Muzikum: Blink 182 - Dumpweed lyrics

Related Blink 182 Bass Tabs

Pathetic bass
Here\'s Your Letter bass
Adams Song Live bass
Everytime I Look For You bass
All The Small Things(corrected) bass
The Whole 'blink 182' Album bass
Adams Song bass
Please Take Me Home bass
Whats My Age Again bass
Cacophony bass
Every Time I Look For You bass
I'm Lost Without You bass
Point Of View bass
M&m's bass
Story Of A Lonely Guy bass
Dont Leave Me bass
Apple Shampoo bass
Carousel - Blink 182 bass
Natives bass
Aliens Exist bass


Guitar Tabs









All tabs are property and copyright of their owners. All tabs provided for educational purposes only. Privacy Policy, DMCA