Blink 182

Dude Ranch Tabs



More from Blink 182

Blink 182 Tabs
Blink 182 Chords
Blink 182 Bass
Blink 182 Lyrics

Blink 182 

Dude Ranch (1997)

Tabber: tworty351



1. Pathetic

2. Voyeur

3. Dammit

4. Boring

5. Dick Lips

6. Waggy

7. Enthused

8. Untitled

9. Apple Shampoo

10.Emo

11.Josie

12.A New Hope

13.Degenerate

14.Lemmings

15.I'm sorry



--------------------------------------------------------------------------------------------

1.Pathetic



Intro

E|-----------------------------------------------------|

B|-5-7-0-0-0-0--5-7-0-0-0-0--5-7-0-0-0-0--4-0-4-0--4---|

G|-----------------------------------------------------|

D|-----------------------------------------------------|

A|-----------------------------------------------------|

E|-----------------------------------------------------|



Verse

E|---------------------------------------------|

B|---------------------------------------------|

G|-5-5-5-5-5-5-5-5--12-12-12-12--10-10-10-10---|

D|-5-5-5-5-5-5-5-5--12-12-12-12--10-10-10-10---|

A|-3-3-3-3-3-3-3-3--10-10-10-10---8--8--8--8---|

E|---------------------------------------------|



Chorus

E|---------------------------------------------------------------|

B|---------------------------------------------------------------|

G|----------------5-----------------5----------------------------|

D|-5-5-5-5-5-5-5--5--5-5-5-5-5-5-5--5--3-3-3-3-3-3-3-3-3-3-3-3---|

A|-5-5-5-5-5-5-5--3--5-5-5-5-5-5-5--3--3-3-3-3-3-3-3-3-3-3-3-3---|

E|-7-7-7-7-7-7-7-----3-3-3-3-3-3-3-----1-1-1-1-1-1-1-1-1-1-1-1---|





----------------------------------------------------------------------------------------------

2. Voyeur



Intro

e|----------------------------------------------------------------------|

B|----------------------------------------------------------------------|

G|----------------------------------------------------------------------|

D|-10-x-x-x-x-x-x-x-x-x-x-x-x-x-x-x--7-x-x-x-x-x-x-x--3-x-x-x-x-x-x-x---|

A|-10-x-x-x-x-x-x-x-x-x-x-x-x-x-x-x--7-x-x-x-x-x-x-x--3-x-x-x-x-x-x-x---|

E|--8-x-x-x-x-x-x-x-x-x-x-x-x-x-x-x--5-x-x-x-x-x-x-x--1-x-x-x-x-x-x-x---|



Verse

e|---------------------------------------------------------------------|

B|---------------------------------------------------------------------|

G|-5-5-5-5-5-5-5-5-5-5-5-5-5-5-5-5-------------------------------------|

D|-5-5-5-5-5-5-5-5-5-5-5-5-5-5-5-5--7-7-7-7-7-7-7-7--3-3-3-3-3-3-3-3---|

A|-3-3-3-3-3-3-3-3-3-3-3-3-3-3-3-3--7-7-7-7-7-7-7-7--3-3-3-3-3-3-3-3---|

E|----------------------------------5-5-5-5-5-5-5-5--1-1-1-1-1-1-1-1---|



Chorus

e|--------------------------------------------------------|

B|--------------------------------------------------------|

G|--------------------------------------------------------|

D|-5-5-5-5-5-5-5-5--3-3-3-3-3-3-3--2-2-2-2-3--2-2-2-2-----|

A|-5-5-5-5-5-5-5-5--3-3-3-3-3-3-3--3-3-3-3----3-3-3-3-----|

E|-3-3-3-3-3-3-3-3--1-1-1-1-1-1-1---------------------3---|



e|----------------------------------------------------------------------------|

B|----------------------------------------------------------------------------|

G|-----------------------------------5-5-5-5-5-5-5-5--------------------------|

D|-5-5-5-5-5-5-5-5--3-3-3-3-3-3-3-3--5-5-5-5-5-5-5-5--5-5-5-5-5-5-5-5-5-5-5---|

A|-5-5-5-5-5-5-5-5--3-3-3-3-3-3-3-3--3-3-3-3-3-3-3-3--5-5-5-5-5-5-5-5-5-5-5---|

E|-3-3-3-3-3-3-3-3--1-1-1-1-1-1-1-1-------------------3-3-3-3-3-3-3-3-3-3-3---|



Bridge

e|--------------------------------------------------------------------|

B|--------------------------------------------------------------------|

G|-5-5-5-5-5-5-5-5----------------------------------------------------|

D|-5-5-5-5-5-5-5-5--3-3-3-3-3-3-3-3--5-5-5-5-5-5-5-5--3-3-3-3-3-3-3---|

A|-3-3-3-3-3-3-3-3--3-3-3-3-3-3-3-3--5-5-5-5-5-5-5-5--3-3-3-3-3-3-3---|

E|------------------1-1-1-1-1-1-1-1--3-3-3-3-3-3-3-3--1-1-1-1-1-1-1---|



Outro

e|---------------------------------------|

B|---------------------------------------|

G|------5-5------------5----------5------|

D|-3-3--5-5--5-5--3-3--5--5--3-3--5--5---|

A|-3-3--3-3--5-5--3-3--3--5--3-3--3--5---|

E|-1-1-------3-3--1-1-----3--1-1-----3---|



e|-----------------------|

B|-----------------------|

G|-----------------------|

D|-2-2-2-2-3-2-2-2-2-----|

A|-3-3-3-3---3-3-3-3-----|

E|-------------------3---|





---------------------------------------------------------------------------------------------------

3. Dammit



Intro

e|-------------------------------------------------|

B|-------------------------------------------------|

G|-------------------------------------------------|

D|-----0-0-2-------0-0-2-------0-0-2-------2-2-0---|

A|-3-3---------------------0-0---------------------|

E|-------------3-3---------------------1-1---------|



Verse

e|------------------------------------------------------|

B|------------------------------------------------------|

G|-5-5-5-5-5-5------------------------------------------|

D|-5-5-5-5-5-5--5-5-5-5-5-5--7-7-7-7-7-7--3-3-3-3-3-3---|

A|-3-3-3-3-3-3--5-5-5-5-5-5--7-7-7-7-7-7--3-3-3-3-3-3---|

E|--------------3-3-3-3-3-3--5-5-5-5-5-5--1-1-1-1-1-1---|



Chorus

e|----------------------------------------------------------------------|

B|----------------------------------------------------------------------|

G|-5-5-5-5-5-5-5-5------------------------------------------------------|

D|-5-5-5-5-5-5-5-5--5-5-5-5-5-5-5-5--7-7-7-7-7-7-7-7--3-3-3-3-3-3-3-3---|

A|-3-3-3-3-3-3-3-3--5-5-5-5-5-5-5-5--7-7-7-7-7-7-7-7--3-3-3-3-3-3-3-3---|

E|------------------3-3-3-3-3-3-3-3--5-5-5-5-5-5-5-5--1-1-1-1-1-1-1-1---|



Bridge

e|---------------------------------------|

B|--5------3------5-------3-5----3-5-----|

G|----5------5------5---------5------5---|

D|------5------5------5------------------|

A|---------------------------------------|

E|---------------------------------------|





--------------------------------------------------------------------------------------------------

4. Boring



Intro

e|----------------------------------|

B|----------------------------------|

G|----------------------------------|

D|----------------------------------|

A|-0-4-0-0-5-0-0----2-----5---2p0---|

E|----------------0---0-0---0-------|



Verse

e|-------------------------------------|

B|-------------------------------------|

G|------2--------6-----------------7---|

D|------2--------6--------4--------7---|

A|-0-0--0---4-4--4--------4---5-5--5---|

E|-------------------2-2--2------------|



Chorus

e|-------------------------------------|

B|-------------------------------------|

G|-------6--6--------7--7-7--9-9-9-9---|

D|-7--7--6--6--6--6--7--7-7--9-9-9-9---|

A|-7--7--4--4--6--6--5--5-5--7-7-7-7---|

E|-5--5--------4--4--------------------|



Outro

e|--------------------------------------------------------------------|

B|--------------------------------------------------------------------|

G|--------------------------------------------------------------------|

D|-7-7-7-6-6-6-------------------------6-6-6--------------------------|

A|--------------7-7-7-7-7-7-7-7--5-5-5-------7-7-7--0-0-0-0-0-0-0-0---|

E|--------------------------------------------------------------------|





-----------------------------------------------------------------------------------------------

5. Dick Lips



Intro

e|----------------------------------------------------------------------|

B|----------------------------------------------------------------------|

G|----------------------------------------------------------------------|

D|-7-7-7-7-7-7-7-7--7-7-7-7-7-7-7-7--7-7-7-7-7-7-7-7--7-7-7-7-7-7-7-7---|

A|-4-4-4-4-4-4-4-4--5-5-5-5-5-5-5-5--0-0-0-0-0-0-0-0--7-7-7-7-7-7-7-7---|

E|----------------------------------------------------------------------|



Verse

e|----------------------------------------------------------------------|

B|----------------------------------------------------------------------|

G|-----------------------------------7-7-7-7-7-7-7-7--9-9-9-9-9-9-9-9---|

D|-7-7-7-7-7-7-7-7--7-7-7-7-7-7-7-7--7-7-7-7-7-7-7-7--9-9-9-9-9-9-9-9---|

A|-7-7-7-7-7-7-7-7--7-7-7-7-7-7-7-7--5-5-5-5-5-5-5-5--7-7-7-7-7-7-7-7---|

E|-5-5-5-5-5-5-5-5--5-5-5-5-5-5-5-5-------------------------------------|



Chorus

e|----------------------------------------------------------------------|

B|----------------------------------------------------------------------|

G|-6-6-6-6-6-6-6-6--7-7-7-7-7-7-7-7-------------------9-9-9-9-9-9-9-9---|

D|-6-6-6-6-6-6-6-6--7-7-7-7-7-7-7-7--7-7-7-7-7-7-7-7--9-9-9-9-9-9-9-9---|

A|-4-4-4-4-4-4-4-4--5-5-5-5-5-5-5-5--7-7-7-7-7-7-7-7--7-7-7-7-7-7-7-7---|

E|-----------------------------------5-5-5-5-5-5-5-5--------------------|



Solo

e|------------------------------------------|

B|------------------------------------------|

G|------------------------------------------|

D|--------------7-6---------------7-7-7-7---|

A|-7-7-7-7-7-7--5-4--2-2-2-2-2-2--5-5-5-5---|

E|-5-5-5-5-5-5-------0-0-0-0-0-0------------|



After Solo

e|---------|

B|--9999---|

G|---------|

D|---------|

A|---------|

E|---------|





---------------------------------------------------------------------------------------------

6. Waggy



Intro

e|---------|

B|---------|

G|---7-6---|

D|---------|

A|-0-------|

E|---------|



Interlude

e|----------------------------------------------------------------|

B|----------------------------------------------------------------|

G|-6-6-6-6--6-6-6-6--6-6-6-6--9-7-6--7-9-----------7-9------------|

D|-x-x-x-x--x-x-x-x--x-x-x-x--x-x-x--x-x-7--7-7-7--x-x-7--7-7-7---|

A|-4-4-4-4--4-4-4-4--4-4-4-4--7-5-4--5-7-x--x-x-x--5-7-x--x-x-x---|

E|---------------------------------------5--5-5-5------5--5-5-5---|



Verse

e|---------|

B|---------|

G|---7-6---|

D|---------|

A|-0-------|

E|---------|



e|----------------------------------------------------------------------|

B|----------------------------------------------------------------------|

G|----------------------------------------------------7-7-7-7-7-7-7-7---|

D|-7-7-7-7-7-7-7-7--7-7-7-7-7-7-7-7--4-4-4-4-4-4-4-4--7-7-7-7-7-7-7-7---|

A|-7-7-7-7-7-7-7-7--7-7-7-7-7-7-7-7--4-4-4-4-4-4-4-4--5-5-5-5-5-5-5-5---|

E|-5-5-5-5-5-5-5-5--5-5-5-5-5-5-5-5--2-2-2-2-2-2-2-2--------------------|



Chorus

e|-------------------------------------|

B|-------------------------------------|

G|----------7-7-7-7--------------------|

D|-4-4-4-4--7-7-7-7--9-9-9-9-9-9-9-9---|

A|-4-4-4-4--5-5-5-5--9-9-9-9-9-9-9-9---|

E|-2-2-2-2-----------7-7-7-7-7-7-7-7---|



Pre Solo (Palm mute)

e|---------------|

B|---------------|

G|---------------|

D|---------------|

A|-7-7-----4-4---|

E|-5-5-----2-2---|



Solo

e|------------------------------|

B|------------------------------|

G|------------------------------|

D|------------------------------|

A|-0-0-4p0--5p0-4p0---5p0-4p0---|

E|------------------------------|





---------------------------------------------------------------------------------------------------

7. Enthused



Intro

e|------------------------------------------------------|

B|------------------------------------------------------|

G|-7-7-7-7-7--------------------------------------------|

D|-7-7-7-7-7-----------------7-7-7-7-7------------------|

A|-5-5-5-5-5--5-4-0-5-4-0h2--7-7-7-7-7--5-4-0-5-4-0h2---|

E|---------------------------5-5-5-5-5------------------|



e|-------------------------------------------|

B|-------------------------------------------|

G|-------------------------------------------|

D|-9-9-9-9--5-5-5-5-5-5-5-5------------------|

A|-9-9-9-9--5-5-5-5-5-5-5-5--5-4-0-5-4-0h2---|

E|-7-7-7-7--3-3-3-3-3-3-3-3------------------|



e|---------------------------------------------------------------------------------|

B|---------------------------------------------------------------------------------|

G|-7-7-7-7-7-----------------9-9-9-9-9---------------------------------------------|

D|-7-7-7-7-7--5-4-0-5-4-0h2--9-9-9-9-9--5-4-0-5-4-0h2---9-9-9-9--5-5-5-5-5-5-5-5---|

A|-5-5-5-5-5-----------------7-7-7-7-7------------------9-9-9-9--5-5-5-5-5-5-5-5---|

E|------------------------------------------------------7-7-7-7--3-3-3-3-3-3-3-3---|



Pre Verse

e|--------------------------------------------------------------------------------------------------|

B|--------------------------------------------------------------------------------------------------|

G|-7-7-7-7-7-7-7-7--12-11-9---7-7-7-7-7-7-7-7--12-11---9-9-9-9-9-9-9-9--6-6--7-7-7-7-7--9-9-9-9-9---|

D|-x-x-x-x-x-x-x-x---x--x-x---x-x-x-x-x-x-x-x---x--x---x-x-x-x-x-x-x-x--x-x--x-x-x-x-x--x-x-x-x-x---|

A|-5-5-5-5-5-5-5-5--10--9-7---5-5-5-5-5-5-5-5--10--9---7-7-7-7-7-7-7-7--4-4--5-5-5-5-5--7-7-7-7-7---|

E|--------------------------------------------------------------------------------------------------|



e|--------------------------------------------------------|

B|--------------------------------------------------------|

G|---9---9-8-9------9----9-8----9---9-8-9-----11---11-8---|

D|----------------9----9------7---7---------9----9--------|

A|-7---7--------------------------------------------------|

E|--------------------------------------------------------|



Verse 1

e|----------------------------------------------------------------------|

B|----------------------------------------------------------------------|

G|-7-7-7-7-7-7-7-7--7-7-7-7-7-7-7-7--7-7-7-7-7-7-7-7--9-9-9-9-9-9-9-9---|

D|-7-7-7-7-7-7-7-7--7-7-7-7-7-7-7-7--7-7-7-7-7-7-7-7--9-9-9-9-9-9-9-9---|

A|-5-5-5-5-5-5-5-5--7-7-7-7-7-7-7-7--5-5-5-5-5-5-5-5--7-7-7-7-7-7-7-7---|

E|----------------------------------------------------------------------|



Interlude

e|-----------------------------------------------|

B|-----------------------------------------------|

G|-7-7-7-7-7-7-7-7-7-7--9--7-7-7-7---------------|

D|-x-x-x-x-x-x-x-x-x-x--x--x-x-x-x--7--3-3-3-3---|

A|-5-5-5-5-5-5-5-5-5-5--7--5-5-5-5--x--x-x-x-x---|

E|----------------------------------5--5-5-5-5---|



e|----------------------------------------------------|

B|----------------------------------------------------|

G|-9--7-7-7-7--9--7-7-7-7--9--7-7-7--9--12-12-12-12---|

D|-x--x-x-x-x--x--x-x-x-x--x--x-x-x--x---x--x--x--x---|

A|-7--5-5-5-5--7--5-5-5-5--7--5-5-5--7--10-10-10-10---|

E|----------------------------------------------------|



e|------------------------------------------------|

B|------------------------------------------------|

G|-9--7-7-7-7--9--7-7-7-7--9--7-7-7---------------|

D|-x--x-x-x-x--x--x-x-x-x--x--x-x-x--7--3-3-3-3---|

A|-7--5-5-5-5--7--5-5-5-5--7--5-5-5--x--x-x-x-x---|

E|-----------------------------------5--5-5-5-5---|



Verse 2

e|------------------------------------------------------------------------------------------|

B|------------------------------------------------------------------------------------------|

G|-7-7-7-7-7-----------------------------------7-7-7-7-7------------------------------------|

D|-7-7-7-7-7--9-9-9-9-9--7-7-7-7-7--5-5-5-5-5--7-7-7-7-7--9-9-9-9-9--7-7-7-7-7--5-5-5-5-5---|

A|-5-5-5-5-5--9-9-9-9-9--7-7-7-7-7--5-5-5-5-5--5-5-5-5-5--9-9-9-9-9--7-7-7-7-7--5-5-5-5-5---|

E|------------7-7-7-7-7--5-5-5-5-5--3-3-3-3-3-------------7-7-7-7-7--5-5-5-5-5--3-3-3-3-3---|



e|---------------------------------------------------------------------------|

B|---------------------------------------------------------------------------|

G|-7-7-7-7-7--------------------7-7-7-7-7------------------------------------|

D|-7-7-7-7-7--9-9-9-9-9--7------7-7-7-7-7--9-9-9-9-9--7-7-7-7-7--5-5-5-5-5---|

A|-5-5-5-5-5--9-9-9-9-9--7------5-5-5-5-5--9-9-9-9-9--7-7-7-7-7--5-5-5-5-5---|

E|------------7-7-7-7-7--5-----------------7-7-7-7-7--5-5-5-5-5--3-3-3-3-3---|





------------------------------------------------------------------------------------------------

8. Untitled



Intro (Palm mute)

e|------------------------------------------------------|

B|------------------------------------------------------|

G|------------------------------------------------------|

D|-4-4-4-4-4--4-4-4-4-4-4-4-----------------------------|

A|-2-2-2-2-2--2-2-2-2-2-2-2--2-2-2-2-2--4-4-4-4-4-4-4---|

E|---------------------------0-0-0-0-0--2-2-2-2-2-2-2---|



Chorus

e|------------------------------------------|

B|------------------------------------------|

G|-8-8--9-9--4-4--6-6--8-8--9-9--4-4--6-4---|

D|-8-8--9-9--4-4--6-6--8-8--9-9--4-4--6-4---|

A|-6-6--7-7--2-2--4-4--6-6--7-7--2-2--4-2---|

E|------------------------------------------|



Pre Verse

e|------------------------------------------------------------|

B|------------------------------------------------------------|

G|-4-4-4-4-4-4-4--------------------------------9-9-9-8-8-8---|

D|-4-4-4-4-4-4-4--6-6-6-6-6-6-6--4-4-4-4-4-4-4--9-9-9-8-8-8---|

A|-2-2-2-2-2-2-2--6-6-6-6-6-6-6--4-4-4-4-4-4-4--7-7-7-6-6-6---|

E|----------------4-4-4-4-4-4-4--2-2-2-2-2-2-2----------------|



Verse

e|---------------------------------------------------------------------|

B|---------------------------------------------------------------------|

G|-4-4-4-4-4-4-4-4-4-4-4-4-4-4-4-4-------------------------------------|

D|-4-4-4-4-4-4-4-4-4-4-4-4-4-4-4-4--2-2-2-2-2-2-2-2--4-4-4-4-4-4-4-4---|

A|-2-2-2-2-2-2-2-2-2-2-2-2-2-2-2-2--2-2-2-2-2-2-2-2--4-4-4-4-4-4-4-4---|

E|----------------------------------0-0-0-0-0-0-0-0--2-2-2-2-2-2-2-2---|



Bridge (Palm mute)

e|----------------------------|

B|----------------------------|

G|----------------------------|

D|---1-4---2-1----1-4---2-1---|

A|-2-----2------------2-------|

E|--------------2-------------|



e|-----------------------------------|

B|-----------------------------------|

G|-----------------------------------|

D|-9-9-9-9-9-9-9-9-9-9-9-9-9-9-9-9---|

A|-x-x-x-x-x-x-x-x-x-x-x-x-x-x-x-x---|

E|-7-7-7-7-7-7-7-7-7-7-7-7-7-7-7-7---|





-------------------------------------------------------------------------------------------

9. Apple Shampoo



Intro

e|--------------------------------------------|

B|--------------------------------------------|

G|-5~----------------------7-7-7-7------------|

D|-5~-------7~---3~---7~---7-7-7-7--3-3-3-3---|

A|-3~-------7~---3~---7~---5-5-5-5--3-3-3-3---|

E|----------5~---1~---5~------------1-1-1-1---|



Interlude

e|--------------------------|

B|--------------------------|

G|-5-5----------------------|

D|-5-5--3-3-3--5-5--3-3-3---|

A|-3-3--3-3-3--5-5--3-3-3---|

E|------1-1-1--3-3--1-1-1---|



Verse (Palm mute)

e|---------------------------------------------------------|

B|---------------------------------------------------------|

G|---------------------------------------------------------|

D|----2------2------3------3------5------5------3------3---|

A|--3----3-3-----------------------------------------------|

E|--------------1-1----1-1----3-3----3-3----1-1----1-1-----|



Chorus

e|-------------------------------------|

B|-------------------------------------|

G|------------------7-7-7-7------------|

D|-7-7-7-7-7-7-7-7--7-7-7-7--3-3-3-3---|

A|-7-7-7-7-7-7-7-7--5-5-5-5--3-3-3-3---|

E|-5-5-5-5-5-5-5-5-----------1-1-1-1---|



e|----------------------------------------------------------------------|

B|----------------------------------------------------------------------|

G|-5-5-5-5-5-5-5-5------------------------------------7-7-7-7-7-7-7-7---|

D|-5-5-5-5-5-5-5-5--5-5-5-5-5-5-5-5--3-3-3-3-3-3-3-3--7-7-7-7-7-7-7-7---|

A|-3-3-3-3-3-3-3-3--5-5-5-5-5-5-5-5--3-3-3-3-3-3-3-3--5-5-5-5-5-5-5-5---|

E|------------------3-3-3-3-3-3-3-3--1-1-1-1-1-1-1-1--------------------|



e|------------------------|

B|------------------------|

G|----------10-10-10-10---|

D|-7-7-7-7--10-10-10-10---|

A|-7-7-7-7---8--8--8--8---|

E|-5-5-5-5----------------|



Bridge

e|-----------------------------------------------------|

B|-----------------------------------------------------|

G|-----------------------------------------------------|

D|-7-7-7-7-7-7-7-7--3-3-3-3-3-3-3-3--7-7-7-7-7-7-7-7---|

A|-7-7-7-7-7-7-7-7--3-3-3-3-3-3-3-3--7-7-7-7-7-7-7-7---|

E|-5-5-5-5-5-5-5-5--1-1-1-1-1-1-1-1--5-5-5-5-5-5-5-5---|



e|--------------------|

B|--------------------|

G|-7-7-7-7------------|

D|-7-7-7-7--3-3-3-3---|

A|-5-5-5-5--3-3-3-3---|

E|----------1-1-1-1---|



Outro

e|----------------------------------------------------------------------|

B|----------------------------------------------------------------------|

G|------------------7-7-7-7-7-7-7-7-------------------5-5-5-5-5-5-5-5---|

D|-5-5-5-5-5-5-5-5--7-7-7-7-7-7-7-7--3-3-3-3-3-3-3-3--5-5-5-5-5-5-5-5---|

A|-5-5-5-5-5-5-5-5--5-5-5-5-5-5-5-5--3-3-3-3-3-3-3-3--3-3-3-3-3-3-3-3---|

E|-3-3-3-3-3-3-3-3-------------------1-1-1-1-1-1-1-1--------------------|





-------------------------------------------------------------------------------------------------

10. Emo



Intro

e|-------------------|

B|-------------------|

G|-------------------|

D|-7-7-7-7-7-7-7-7---|

A|-------------------|

E|-------------------|



e|--------------------------------------------------|

B|--------------------------------------------------|

G|--------------------------------------------------|

D|---7-6---7----7-6---------7-6---7----7-6----------|

A|-7-----7----7-----7-9---7-----7----7-----7-9--7---|

E|--------------------------------------------------|



Verse

e|-------------------------------------|

B|-------------------------------------|

G|-4-4-4-4-4-4-4-4--6-6-6-6------------|

D|-4-4-4-4-4-4-4-4--6-6-6-6--7-7-7-7---|

A|-2-2-2-2-2-2-2-2--4-4-4-4--7-7-7-7---|

E|---------------------------5-5-5-5---|



Bridge

e|---------------------|

B|---------------------|

G|---------------------|

D|---------------------|

A|-11---12---13---14---|

E|---------------------|



Outro

e|----------------------------------------------------------------------|

B|----------------------------------------------------------------------|

G|----------------------------------------------------4-4-4-4-4-4-4-4---|

D|-2-2-2-2-2-2-2-2--4-4-4-4-4-4-4-4--7-7-7-7-7-7-7-7--4-4-4-4-4-4-4-4---|

A|-2-2-2-2-2-2-2-2--4-4-4-4-4-4-4-4--7-7-7-7-7-7-7-7--2-2-2-2-2-2-2-2---|

E|-0-0-0-0-0-0-0-0--2-2-2-2-2-2-2-2--5-5-5-5-5-5-5-5--------------------|





--------------------------------------------------------------------------------------------

11. Josie





Intro

e|-----------------------------------------------|

B|-----------------------------------------------|

G|-4~----4~----4~----4~--------------------------|

D|-4~----4~----4~----4~--------------------------|

A|-2~----2~----2~----2~----2~----2~----2~----2~--|

E|-----------------------------------------------|



Verse

e|-----------------------------------------------------|

B|-----------------------------------------------------|

G|-4-4-4-4-4-4-----------------------------------------|

D|-4-4-4-4-4-4--4-4-4-4-4-4--2-2-2-2-2-2-2-2-2-2-2-2---|

A|-2-2-2-2-2-2--4-4-4-4-4-4--2-2-2-2-2-2-2-2-2-2-2-2---|

E|--------------2-2-2-2-2-2--0-0-0-0-0-0-0-0-0-0-0-0---|



e|-----------------------------------------------------|

B|-----------------------------------------------------|

G|-4-4-4-4-4-4--6-6-6-6-6-6--9-9-9-9-9-9-9-9-9-9-9-9---|

D|-4-4-4-4-4-4--6-6-6-6-6-6--9-9-9-9-9-9-9-9-9-9-9-9---|

A|-2-2-2-2-2-2--4-4-4-4-4-4--7-7-7-7-7-7-7-7-7-7-7-7---|

E|-----------------------------------------------------|



Pre Chorus

e|------------------------------------------------------|

B|------------------------------------------------------|

G|---------------------------4-4-4-4-4-4----------------|

D|-4-4-4-4-4-4--2-2-2-2-2-2--4-4-4-4-4-4--4-4-4-4-4-4---|

A|-4-4-4-4-4-4--2-2-2-2-2-2--2-2-2-2-2-2--4-4-4-4-4-4---|

E|-2-2-2-2-2-2--0-0-0-0-0-0---------------2-2-2-2-2-2---|



e|----------------------------------------------------|

B|----------------------------------------------------|

G|-6-6-6-6-6-6-6-6-6-6-6-6----------------------------|

D|-6-6-6-6-6-6-6-6-6-6-6-6--4-4-4-4-4-4-4-4-4-4-4-4---|

A|-4-4-4-4-4-4-4-4-4-4-4-4--4-4-4-4-4-4-4-4-4-4-4-4---|

E|--------------------------2-2-2-2-2-2-2-2-2-2-2-2---|



Chorus

e|-------------------------------------------------------|

B|-------------------------------------------------------|

G|-4-4-4-4-4-4-------------------------------------------|

D|-4-4-4-4-4-4--4-4-4-4-4-4--2-2-2-2-2-2-2-2-2-2--6-4----|

A|-2-2-2-2-2-2--4-4-4-4-4-4--2-2-2-2-2-2-2-2-2-2--6-4----|

E|--------------2-2-2-2-2-2--0-0-0-0-0-0-0-0-0-0--4-2----|





---------------------------------------------------------------------------------------------------

12. A New Hope



Intro

e|------------------------------------------------------------------------------------------|

B|-8-8-8-8-8--8-8-8-8-8--8-8-8-8-8--7-7-7-7-7--8-8-8-8-8--8-8-8-8-8--8-8-8-8-8--7-7-7-7-7---|

G|-0-0-0-0-0--0-0-0-0-0--0-0-0-0-0--0-0-0-0-0--5-5-5-5-5--5-5-5-5-5--7-7-7-7-7--7-7-7-7-7---|

D|------------------------------------------------------------------------------------------|

A|------------------------------------------------------------------------------------------|

E|------------------------------------------------------------------------------------------|



Verse

e|-----------------------------------------------------------------------------------------|

B|-----------------------------------------------------------------------------------------|

G|-----------------------------------------------------------------------------------------|

D|--------------5-5-7---------------5-5-7---------------5-5-7---5-5-5-5-5-5--4-4-4-4-4-4---|

A|-5-5-5-5-5-5--3-3-5--5-5-5-5-5-5--3-3-5--2-2-2-2-2-2--3-3-5------------------------------|

E|-3-3-3-3-3-3---------3-3-3-3-3-3---------0-0-0-0-0-0-------------------------------------|



Chorus

e|------------------------------------------------------------------------------------------------|

B|------------------------------------------------------------------------------------------------|

G|----------------------5-5-5-5-5-5-5-5-5-5-------------------------------------------------------|

D|-5-5-5-5-5-5-5-5-5-5--5-5-5-5-5-5-5-5-5-5--5-5-5-5-5-7--5-5-5-5-5-2--5-5-5-5-5-7--5-5-5-5-5-4---|

A|-5-5-5-5-5-5-5-5-5-5--3-3-3-3-3-3-3-3-3-3--5-5-5-5-5-7--5-5-5-5-5-2--5-5-5-5-5-7--5-5-5-5-5-4---|

E|-3-3-3-3-3-3-3-3-3-3-----------------------3-3-3-3-3-5--3-3-3-3-3-0--3-3-3-3-3-5--3-3-3-3-3-2---|



Bridge

e|-------------------------------------------------|

B|-------------------------------------------------|

G|----------------4h7-4h7-4h7--4--5h4-5h4-5h4--4---|

D|-7-7-7-7-7-7-7-----------------------------------|

A|-5-5-5-5-5-5-5-----------------------------------|

E|-------------------------------------------------|



After Solo

e|----------------------------------------------------------------------|

B|----------------------------------------------------------------------|

G|----------------------------------------------------------------------|

D|------------------7-7-7-7-7-7-7-7--5-5-5-5-5-5-5-5--9-9-9-9-7-7-7-7---|

A|-5-5-5-5-5-5-5-5--5-5-5-5-5-5-5-5--3-3-3-3-3-3-3-3--7-7-7-7-5-5-5-5---|

E|-3-3-3-3-3-3-3-3------------------------------------------------------|



Outro

e|----------------------------------------------------------------------------------------|

B|----------------------------------------------------------------------------------------|

G|----------------------------------------------------------------------------------------|

D|-------------------5-5-5-5-5-5-5-5------------------------------------------------------|

A|-5-5-5-5-5-5-5-5---3-3-3-3-3-3-3-3--5-5-5-5-5-5-5-5--7-7-7-7-7-7-7-7--5-5-5-5-5-5-5-5---|

E|-3-3-3-3-3-3-3-3--------------------3-3-3-3-3-3-3-3--5-5-5-5-5-5-5-5--3-3-3-3-3-3-3-3---|



e|--------|

B|--------|

G|--------|

D|-5-7----|

A|-3-5-5--|

E|-----3--|





------------------------------------------------------------------------------------------

13. Degenerate



Verse

e|----------------------|

B|----------------------|

G|-3~---10~---7~---5~---|

D|-3~---10~---7~---5~---|

A|-1~----8~---5~---3~---|

E|----------------------|



e|-----------------------------------|

B|-----------------------------------|

G|----3-------2--------3-------2-----|

D|------3-------3----1---3-------3---|

A|--1------------------------3-------|

E|----------1------------------------|



Chorus

e|------------------------------------------|

B|------------------------------------------|

G|-3-3-3-3-----------8-8-8-8--10-10-10-10---|

D|-3-3-3-3--3-3-3-3--8-8-8-8--10-10-10-10---|

A|-1-1-1-1--3-3-3-3--6-6-6-6---8--8--8--8---|

E|----------1-1-1-1-------------------------|



After Chorus

e|--------------------------|

B|--------------------------|

G|--3-2-----3-2-5-3-2-3-5---|

D|------5-3-----------------|

A|--------------------------|

E|--------------------------|



Solo

e|---------------------------------------------------------------------|

B|-3-4-6-4-3-4-----3---3-4-3-------------------------------------------|

G|---------------5---5-------5-3-3-2-----3-----3-----------------------|

D|-------------------------------------5---5-3---5-3-0-1-1-3-3-1-0-----|

A|-----------------------------------------------------------------1---|

E|---------------------------------------------------------------------|





-----------------------------------------------------------------------------------------------

14. Lemmings



Intro

e|--------------------|

B|--------------------|

G|--------------------|

D|----4--1-----2--1---|

A|-2--------2---------|

E|--------------------|



e|-------------------------------------------------------------------|

B|-------------------------------------------------------------------|

G|-4-4-4-----------4-4-4---------------------------------------------|

D|-4-4-4--2-2-2-2--4-4-4--6-6-6-6--4-4-4--6-6-6-6--2-2-2-2-2-2-2-2---|

A|-2-2-2--2-2-2-2--2-2-2--6-6-6-6--4-4-4--6-6-6-6--2-2-2-2-2-2-2-2---|

E|--------0-0-0-0---------4-4-4-4--2-2-2--4-4-4-4--0-0-0-0-0-0-0-0---|



Verse

e|--------------------|------------------------------------|

B|--------------------|------------------------------------|

G|--------------------|------------------9-9-9-9-9-9-9-9---|

D|----4--1-----2--1---|-2-2-2-2-2-2-2-2--9-9-9-9-9-9-9-9---|

A|-2--------2---------|-2-2-2-2-2-2-2-2--7-7-7-7-7-7-7-7---|

E|--------------------|-0-0-0-0-0-0-0-0--------------------|



Chorus

e|-----------------------------------------|

B|-----4---5-------4---5-------4---5-------|

G|-4-----------4-----------4-----------4---|

D|-----------------------------------------|

A|-----------------------------------------|

E|-----------------------------------------|



Interlude (Palm mute)

e|-----------------------------------------------------------------|

B|---------------------------5-4-----------------------------5-4---|

G|-4-3--4-4---4-3--4-4---3-4-------4-3--4-4---4-3--4-4---3-4-------|

D|-----------------------------------------------------------------|

A|-----------------------------------------------------------------|

E|-----------------------------------------------------------------|



Outro

e|----------------------------------------------------------------------|

B|----------------------------------------------------------------------|

G|------------------6-6-6-6-6-6-6-6-------------------9-9-9-9-9-9-9-9---|

D|-9-9-9-9-9-9-9-9--6-6-6-6-6-6-6-6--6-6-6-6-6-6-6-6--9-9-9-9-9-9-9-9---|

A|-9-9-9-9-9-9-9-9--4-4-4-4-4-4-4-4--6-6-6-6-6-6-6-6--7-7-7-7-7-7-7-7---|

E|-7-7-7-7-7-7-7-7-------------------4-4-4-4-4-4-4-4--------------------|





----------------------------------------------------------------------------------------------

15. I'm Sorry



Intro

e|--------------------------|

B|--------------------------|

G|--------------------6-6---|

D|---7-9--7-6----0----------|

A|-0-----------7---7--------|

E|--------------------------|



Verse (Palm mute)

e|--------------------------------------------------------------------|

B|--------------------------------------------------------------------|

G|--------------------------------------------------------------------|

D|-7-7-7-7-7-7-7-7-7-7-7-7-7-7-7-7------------------------------------|

A|-5-5-5-5-5-5-5-5-5-5-5-5-5-5-5-5--7-7-7-7-7-7-7-7-7-7-7-7-7-7-7-7---|

E|----------------------------------5-5-5-5-5-5-5-5-5-5-5-5-5-5-5-5---|



e|--------------------------------------------------------------------|

B|--------------------------------------------------------------------|

G|--------------------------------------------------------------------|

D|-9-9-9-9-9-9-9-9-9-9-9-9-9-9-9-9------------------------------------|

A|-7-7-7-7-7-7-7-7-7-7-7-7-7-7-7-7--7-7-7-7-7-7-7-7-7-7-7-7-7-7-7-7---|

E|----------------------------------5-5-5-5-5-5-5-5-5-5-5-5-5-5-5-5---|



Interlude

e|--------------------------------|

B|--------------------------------|

G|--------------------------------|

D|--------------------------------|

A|----7-------7-------7-------7---|

E|-4-----4-4-----5-5-----5-5------|



Main Riff

e|----------------|

B|----------------|

G|----------------|

D|-7-7--7-9--11---|

A|----------------|

E|----------------|



Enjoy!

Ryan

Get this song at amazon.com      Ebay     Ringtones Ringtones  


Learn to play: Songwriting, Piano, Harmonica, Guitar
Also available at Muzikum: Blink 182 - Dude Ranch lyrics

Related Blink 182 Tabs

What Went Wrong tabs
Angellica And Me tabs
Wrecked Him tabs
Does My Breath Smell tabs
The Rock Show Live tabs
Dammit (live) tabs
Everytime I Look For You tabs
Obvious tabs
Dont Leave Me Bass tabs
Adam\'s Song tabs
Party Song, The tabs
Point Of View Solo tabs
Josie Live tabs
Dammit(done Right) tabs
Adams Song tabs
Adams Song Piano tabs
Man Overboard(right) tabs
F k A Dog tabs
Don't Tell Me That Its Over tabs
Dont Tell Me Its Over tabs


Guitar Tabs









All tabs are property and copyright of their owners. All tabs provided for educational purposes only. Privacy Policy, DMCA