Blink 182

Down Tabs



More from Blink 182

Blink 182 Tabs
Blink 182 Chords
Blink 182 Bass
Blink 182 Lyrics

Artist: Blink 182

Song: Down (Live)

Standard Tuning without CAPO



I have heaps of Blink videos and this is the way Tom played it on David Letterman. I'm 100% percent sure this

tab is correct as i've played the song this way and the way other people have tabbed it and this sounds much

better and is easier to play because you don't need to have a CAPO





Intro x 8

E|-----------------------|

B|-----------------------|

G|-----------------------|

D|-999--xx--999-xx--99---|

A|-xxx--xx--xxx-xx--xx---|

E|-777--xx--777-xx--77---|



Verse x 6

E|-------------------------------------------------| E|------------------|

B|-------------------------------------------------| B|------------------|

G|-------------------------------------------------| End on G|------------------|

D|-999--xx--999--xx--99-xx--666--xx--666--xx--66---| D|------------------|

A|-------------------------------------------------| A|-2~---------------|

E|-777--xx--777--xx--77-xx--444--xx--888--xx--88---| E|-0~---------------|



Chorus x 2

E|-------------------------------------------------------------|

B|-------------------------------------------------------------|

G|-------------------------------------------------------------|

D|-666666666 888888888 999999999 444444444 666666666 888888888-|

A|-xxxxxxxxx xxxxxxxxx xxxxxxxxx xxxxxxxxx xxxxxxxxx xxxxxxxxx-|

E|-444444444 666666666 777777777 222222222 444444444 888888888-|





Post Chorus

E|----------------------------------------|

B|----------------------------------------|

G|----------------------------------------|

D|----------999999999-----------999999999-|

A|999999999-777777777-666666666-777777777-|

E|777777777-----------444444444-----------|





Intro x 2

E|-----------------------|

B|-----------------------|

G|-----------------------|

D|-999--xx--999-xx--99---|

A|-xxx--xx--xxx-xx--xx---|

E|-777--xx--777-xx--77---|



Chorus x 1

E|------------------------------------------------------------------|

B|------------------------------------------------------------------|

G|------------------------------------------------------------------|

D|-----666666666 888888888 999999999 444444444 666666666 888888888--|

A|-2~--xxxxxxxxx xxxxxxxxx xxxxxxxxx xxxxxxxxx xxxxxxxxx xxxxxxxxx--|

E|-0~--444444444 666666666 777777777 222222222 444444444 888888888--|





Post Chorus

E|----------------------------------------|

B|----------------------------------------|

G|----------------------------------------|

D|----------999999999-----------999999999-|

A|999999999-777777777-666666666-777777777-|

E|777777777-----------444444444-----------|





Outro

E|------------------|

B|----10--10--------|

G|--9---9---9-------|

D|-7-7---7----------|

A|------------------|

E|------------------|

Get this song at amazon.com      Ebay     Ringtones Ringtones  


Learn to play: Songwriting, Piano, Harmonica, Guitar
Also available at Muzikum: Blink 182 - Down lyrics

Related Blink 182 Tabs

Aliens Exist tabs
A New Hope Intro tabs
Just About Done tabs
The Country Song tabs
Hollywood tabs
Please Take Me Home tabs
Party Song tabs
Online Songs tabs
Wasting Time tabs
Dead Man's Curve tabs
What Went Wrong 100% tabs
Boring tabs
Feelin This tabs
Ben Wah Balls tabs
The Enema Strikes Back tabs
Alone Intro tabs
Adams Song (guitar Tab) tabs
Dicklips tabs
Adams Song Live tabs
Waggy tabs


Guitar Tabs









All tabs are property and copyright of their owners. All tabs provided for educational purposes only. Privacy Policy, DMCA