Blink 182

Down (live) Tabs



More from Blink 182

Blink 182 Tabs
Blink 182 Chords
Blink 182 Bass
Blink 182 Lyrics



down

look i know its in a weird tunning and he uses a capo
but i dont care...i tabbed it out with the right notes with out
changing anything to the guitar..if this sux sorry its a by ear thing
i apoligize for my suckiness.

and for people that dont comprehend it made not to have a capo


Intro:
e|-----------------------|
B|-----------------------|
G|--4444-x-4444-x-444-x--|
D|--xxxx-x-xxxx-x-xxx-x--|
A|--2222-x-2222-x-222-x--|
E|-----------------------|

Verse--1 (verse 2 you let each note ring)
e|-----------------------------|
b|-----------------------------|
g|-444-4444-44-----------------|
d|-444-4444-44-6666-8888-88----|
a|-222-2222-22—6666-8888-88----|
E|-------------4444-6666-66----|

pre-chorus
E|-------------------------------------------|
B|-------------------------------------------|
G|----------33333333-44444444----------------|
d|-66666666-33333333-44444444-44444444-------|
a|-66666666-11111111-22222222-44444444-------|
e|-44444444-------------------22222222-------|

chorus
e|--------------------------------------|
b|--------------------------------------|
g|-444-4444-44--------------------------|
d|-444-4444-44-222-2222-22-666-6666-66--|
a|-222-2222-22-222-2222-22-666-6666-66--|
e|-------------000-0000-00-444-4444-44--|

end thing part one

e---------------------------------------I----------------------------I
b---------------------------------------I----------------------------I
g-------------------------16------------I-444~-13-13-13---999~-------I
d-----16----16------16-------16---------I-444~-13-13-13---999~-------I
a-14-----14-----14-----14--------14-----I-222~-11-11-11~--777~-------I
e---------------------------------------I---------------~------------I

end part two
e|--------------------
b|--------------------
g|-----4--------------
d|------------4-----4-
a|-—1/2---1/2---1/2---
E|--------------------


Get this song at amazon.com      Ebay     Ringtones Ringtones  


Learn to play: Songwriting, Piano, Harmonica, Guitar
Also available at Muzikum: Blink 182 - Down Live lyrics

Related Blink 182 Tabs

A Dog tabs
Pathetic Intro tabs
Go tabs
I Miss You Live tabs
78 People tabs
Shut Up tabs
Phantom Of The Opera tabs
Reckless Abandon tabs
B J tabs
Reckless Abandon Solo tabs
All The Small Things Live Solo tabs
Take Off Your Pants And Jacket tabs
Blink 182 Album tabs
Lucky tabs
It's Obvious tabs
F k A Dog tabs
Stay Together For The Kids (Solo) tabs
Apple Shampoo tabs
Party Song, The tabs
Online Songs tabs


Guitar Tabs









All tabs are property and copyright of their owners. All tabs provided for educational purposes only. Privacy Policy, DMCA