Blink 182

Down Bass Tabs



More from Blink 182

Blink 182 Tabs
Blink 182 Chords
Blink 182 Bass
Blink 182 Lyrics

Date: Sun, 27 Jun 2004 23:30:33 -0400
From: !~TyLeR~! !~BaRnEs~! 
Subject: b/blink_182/down.btab


Song: Down

Artists: Blink 182

Album: Blink 182

Bassist: Mark Hoppus

Tabber: Tyler B

/ = slide up

 = slide down

~= let ring

 

After guitar solo at the very start of the song

intro/verse 1

(listen for strumming pattern)

G:-----------------------------------------------------------------------|
x6
D:-----------------------------------------------------------------------|
A:-2-22-22-22222---------11111---------------------------------------|

E:-----------------2/4444-----------------------------------------------|

lyrics for verse 1:

The drops of rain they fall all over,

This awkward silence makes me crazy,

The glow inside burns light upon her,

I'll try to kiss you if you'll let me,

Pre-chorus

G:----------------------------------------------------------------------|
D:----------------------------------------------------------------------|
A:----------------------------------------------------------------------|
E:-0~~~~~~~~------------------------------------------------------|

lyrics:

This can't be the end,

Chorus Part 1

G:----------------------------------------------------------------------|
D:----------------------------------------------------------------------|
A:----------------111111111111222222222222------------------------|
E:-444444444444------------------------------------------------------|
lyrics:

Title waves they,

Rip right through me,

Tears from eyes worn,

G:----------------------------------------------------------------------|
D:----------------------------------------------------------------------|
A:----------------------------------111111111111---------------------|
E:-22-22-22-22-2-2-444444444444------------------------------------|

lyrics:

Cold and sad,

Pick me up now,

I need you so bad,

Chorus Part 2

x2

G:------------------------------------------------------------------------------
----|
D:------------------------------------------------------------------------------
----|
A:222222222222------------------------------------------------------------------
-|
E:---------------000000000000444444444444000000000000----------------------|

lryics: x2

Down down down down,

Down down down down,

Down down down down,

Down down down down,

Verse 2 part 1:

G:--------------------------------------------------------------|x2
D:--------------------------------------------------------------|
A:-2-----1/-----------------------------------------------------|
E:---2/4--------------------------------------------------------|

lyrics:

Your vows of silence fall all over,

The look in your eyes make me crazy,

Verse 2 part x2:

G:--------------------------------------------------------------|
D:--------------------------------------------------------------|
A:-2-22-22-22222---------11111------------------------------|
E:-----------------2/4444--------------------------------------|

lyrics:

I tool the darkness break upon her,

I'll take you over if you'll let me,

Pre-chorus

G:--------------------------------------------------------------|
D:--------------------------------------------------------------|
A:--------------------------------------------------------------|
E:0~~~~~~~~-----------------------------------------------|

lyrics:

You did this,

Chorus Part 1

G:----------------------------------------------------------------------|
D:----------------------------------------------------------------------|
A:-----------------111111111111222222222222-----------------------|
E:-444444444444------------------------------------------------------|
lyrics:

Title waves they,

Rip right through me,

Tears from eyes worn,

G:----------------------------------------------------------------------|
D:----------------------------------------------------------------------|
A:----------------------------------111111111111---------------------|
E:-22-22-22-22-2-2-444444444444------------------------------------|

lyrics:

Cold and sad,

Pick me up now,

I need you so bad,

Chorus Part 2  x2

G:------------------------------------------------------------------------------
----|
D:------------------------------------------------------------------------------
----|
A:222222222222------------------------------------------------------------------
-|
E:---------------000000000000444444444444000000000000-----------------------|

lryics: x2

Down down down down,

Down down down down,

Down down down down,

Down down down down,

Outro

(listen to song to get the timing right)

G:--------------------------------------------------------------|
D:--------------------------------------------------------------|
A:--------------------------------------------------------------|
E:0~~~~0~~~~0~~~~0~~~~0~~~~---------------------|

I hope you enjoy it!


________________________________________________________________________________
Get this song at amazon.com      Ebay     Ringtones Ringtones  


Learn to play: Songwriting, Piano, Harmonica, Guitar
Also available at Muzikum: Blink 182 - Down lyrics

Related Blink 182 Bass Tabs

Even If She Falls bass
Dont Leave Me bass
Dysentery Gary bass
G O bass
The Country Song bass
Kaleidoscope bass
Obvious bass
D***it bass
Daze Gone By bass
First Date bass
Feeling This bass
Don't Leave Me (power Chord Way If You Get Bored) bass
Blew Job bass
The Party Song bass
I Won't Be Home For Christmas bass
Family Reuinion bass
T V bass
Point Of View bass
Don't Tell Me It's Over bass
Buddha Full Album - Bass Tab bass


Guitar Tabs









All tabs are property and copyright of their owners. All tabs provided for educational purposes only. Privacy Policy, DMCA