Blink 182

Dont Tell Me That Its Over Tabs



More from Blink 182

Blink 182 Tabs
Blink 182 Chords
Blink 182 Bass
Blink 182 Lyrics



BAND: BLINK 182
CD: TAKE OFF YOUR PANTS AND JACKET
SONG TITLE: Don't Tell Me That It's Over
ANY QUESTIONS EMAIL ME VOOGEVOO@aol.com

IT IS ALL IN ORDER JUST GO DOWN AND IT'S A BREEZE FROM THERE

Intro
e|---------------------------------------------|
B|---------------------------------------------|
G|--5------5-5-----5------5-5------------------|
D|--5------5-5-----5------5-5------------------|
A|--3------3-3-----3------3-3------------------|
E|---------------------------------------------|
...... no ring ...... no ring

I hear the phone, it rings so violently.
Can't leave my room, cant breathe since she left me
I will admit, I hate those things I said.
Girls always cry, guys will never admit they did.



HOLD ON.....
e|---------------------------------------------|
B|---------------------------------------------|
G|---5-----------------------------------------|
D|---x-----------------------------------------|
A|---3-----------------------------------------|
E|---------------------------------------------|

keep strumming up and down while bass plays

CHORUS/
e|---------------------------------------------|
B|---------------------------------------------|
G|--5------------------------------------------|
D|--5---5---3----------------------------------|
A|--3---5---3----------------------------------|
E|------3---1----------------------------------|

Dont tell me that its over, im not used to this temptation
And When you come back running theres no use for explanation
I think things arent too hopeful even with my expert knowledge
Most girls do mean trouble Because they are rarely honest

INTERLUDE/
e|---------------------------------------------|
B|---------------------------------------------|
G|---------------------------------------------|
D|---2-0-2---2----3-0-2---2--------------------|
A|-3-------3---3--------3---3------------------|
E|---------------------------------------------|


e|---------------------------------------------|
B|---------------------------------------------|
G|--5------------------------------------------|
D|--5---5---3----------------------------------|
A|--3---5---3----------------------------------|
E|------3---1----------------------------------|
PALM MUTED

Whats with the jokes and all the routines they play
Screw with my head never give in till they get their way
Guys like like whine, chicks love to yell you see
Guys hate to fight, girls think its therapy

HOLD ON.....
e|---------------------------------------------|
B|---------------------------------------------|
G|---5-----------------------------------------|
D|---x-----------------------------------------|
A|---3-----------------------------------------|
E|---------------------------------------------|

keep strumming while bass plays

e|---------------------------------------------|
B|---------------------------------------------|
G|--5------------------------------------------|
D|--5---5---3----------------------------------|
A|--3---5---3----------------------------------|
E|------3---1----------------------------------|

Dont tell me that its over Im not used to this temptation
And When you come back running Theres no use for explanation
I think things arent too hopeful Even with my expert knowledge
Most girls do mean trouble Because they are rarely honest


e|---------------------------------------------|
B|---------------------------------------------|
G|---------------------------------------------|
D|---2---2-0-2-------3-2---0-2-----------------|
A|-3---3-------3---------3-----3---------------|
E|---------------------------------------------|

e|---------------------------------------------|
B|---------------------------------------------|
G|--5------------------------------------------|
D|--5---5---7---3------------------------------|
A|--3---5---7---3------------------------------|
E|------3---5---1------------------------------|
PALM MUTE................

WHEN HOLD ON STARTS...

e|---------------------------------------------|
B|---------------------------------------------|
G|--5------------------------------------------|
D|--5---5----3---------------------------------|
A|--3---5----3---------------------------------|
E|------3----1---------------------------------|
PALM MUTE...............

e|---------------------------------------------|
B|---------------------------------------------|
G|--5------------------------------------------|
D|--5---5---3----------------------------------|
A|--3---5---3----------------------------------|
E|------3---1----------------------------------|

Dont tell me that its over Im not used to this temptation
And When you come back running Theres no use for explanation
I think things arent too hopeful Even with my expert knowledge
Most girls do mean trouble Because they are rarely honest
Dont tell me that its over Im not used to this temptation
And When you come back running Theres no use for explanation
I think things arent too hopeful Even with my expert knowledge
Most girls do mean trouble Because they are rarely honest

e|---------------------------------------------|
B|---------------------------------------------|
G|--5------------------------------------------|
D|--5------------------------------------------|
A|--3------------------------------------------|
E|---------------------------------------------|
LET RING................

Dont tell me that its over Im not used to this temptation


Get this song at amazon.com      Ebay     Ringtones Ringtones  


Learn to play: Songwriting, Piano, Harmonica, Guitar
Also available at Muzikum: Blink 182 - Dont Tell Me That Its Over lyrics

Related Blink 182 Tabs

Anthem Pt Ii tabs
Always1 tabs
Dicklips (live) tabs
Adams Song Complete tabs
Down (live) tabs
Grampa Is An Asshole tabs
Here\'s Your Letter tabs
Adams Song(perfect) tabs
Mutt Live tabs
Cereal tabs
I Know A Guy tabs
Seasons In The Sun tabs
Anthem Part Two Live tabs
Secret Track tabs
Blew Job tabs
Party Song, The tabs
Happy Holidays You Bastard tabs
Point Of View tabs
Dysentery Gary Intro tabs
Touchdown Boy Intro-easy tabs


Guitar Tabs









All tabs are property and copyright of their owners. All tabs provided for educational purposes only. Privacy Policy, DMCA