Blink 182

Don't Tell Me That Its Over Tabs



More from Blink 182

Blink 182 Tabs
Blink 182 Chords
Blink 182 Bass
Blink 182 Lyrics



SONG: Don't Tell Me It's Over
ARTIST: Blink182
ALBUM: Take Off Your Pants And Jacket (Green Disc)


Verse Riff 1
|--------------------------------|
|--------------------------------|
|--------------------------------|
|-5~-----5-5-----5~-----5-5------|
|-3~-----3-3-----3~-----3-3------|
|--------------------------------|

Pre-Chorus 1
|--------------------------------|
|--------------------------------|
|--------------------------------|
|--------------------------------|
|-3^3^3^3^3^3^3^3^3^3^3^3^3^3^3^-|
|--------------------------------|

Chorus
|-------------------------------------|
|-------------------------------------|
|-------------------------------------|
|-5-5-5-5-5-5-5-5-5-5-5-5-3-3-3-3-3-3-|
|-3-3-3-3-3-3-5-5-5-5-5-5-3-3-3-3-3-3-|
|-------------3-3-3-3-3-3-1-1-1-1-1-1-|

Bridge 1
|-------------|
|-------------|
|-------------|
|-------------|
|-7-5-7---7---|
|-------8---8-|

Verse Riff 2
|--------------------------------------|
|--------------------------------------|
|--------------------------------------|
|--5-5-5-5-5-5-5-5-5-5-5-5-3-3-3-3-3-3-|
|--3-3-3-3-3-3-5-5-5-5-5-5-3-3-3-3-3-3-|
|--------------3-3-3-3-3-3-1-1-1-1-1-1-|
P.m ......... ......... .........

Bridge 2
|--------------------------------------|
|--------------------------------------|
|--------------------------------------|
|--5-5-5-5-5-5-5-5-5-5-5---3-3-3-3-3-3-|
|--3-3-3-3-3-3-5-5-5-5-5-7-3-3-3-3-3-3-|
|--------------3-3-3-3-3-5-1-1-1-1-1-1-|
P.m...................................

Outro
|-------------|
|-------------|
|-------------|
|-5~~~~~~~~~~-|
|-3~~~~~~~~~~-|
|-------------|


Order To Play

Verse Riff 1 x1
Pre-Chorus x1
Chorus x4
Bridge 1 x4
Verse Riff 2 x4
Pre-Chorus x1
Chorus x4
Bridge 1 x4
Bridge 2 x4
Chorus x8
Outro x1

Lyrics

I hear the phone it rings so violently
Cant leave my room, cant breath since she left me
I will admit i hate those things i said
Girls always cry, guys will never admit they did

(Hold on - Hold on - Hold on - Hold on)

Dont tell me that it's over
Im not used to this temptation
And when you come back running
There's no use for explanation
I think things are too hurtful
Even with my expert knowledge
Most girls do mean trouble,
Because they are rarely honest

What's with the jokes, all the routines they play
Screwing with my head, never quitting 'till they get their way
Guys like to run, chicks love to yell you see
Guys hate to fight, girls think it's therapy

(Hold on - Hold on - Hold on - Hold on)

Dont tell me that it's over
Im not used to this temptation
And when you come back running
There's no use for explanation
I think things are too hurtful
Even with my expert knowledge
Most girls do mean trouble,
Because they are rarely honest

(Hold on - Hold on - Hold on - Hold on)

Dont tell me that it's over
Im not used to this temptation
And when you come back running
There's no use for explanation
I think things are too hurtful
Even with my expert knowledge
Most girls do mean trouble,
Because they are rarely honest

Dont tell me that it's over
Im not used to this temptation
And when you come back running
There's no use for explanation
I think things are too hurtful
Even with my expert knowledge
Most girls do mean trouble,
Because they are rarely honest

Dont tell me that it's over
Im not used to this temptation.

this song is excellent cant beat it for simplicity


Get this song at amazon.com      Ebay     Ringtones Ringtones  


Learn to play: Songwriting, Piano, Harmonica, Guitar
Also available at Muzikum: Blink 182 - Dont Tell Me That Its Over lyrics

Related Blink 182 Tabs

Girl Next Door tabs
Genie In A Bottle Live tabs
Dysentery Gary tabs
Enema Of The State Album tabs
A New Hope Solo tabs
Phantom Of The Opera tabs
F A Dog tabs
Wendy Clear tabs
Wendy Clear Bass tabs
Toms Song tabs
Online Songs Solo tabs
Dammit (live An Normal 100%) tabs
Pathetic Live tabs
Asthenia-live tabs
Sex With Grandpa tabs
Blink 182 Album tabs
Ben Wah Balls tabs
All New Songs tabs
Dont Leave Me (acoustic) tabs
Carousel Intro tabs


Guitar Tabs









All tabs are property and copyright of their owners. All tabs provided for educational purposes only. Privacy Policy, DMCA