Blink 182

Don't Leave Me (power Chord Way If You Get Bored) Bass Tabs



More from Blink 182

Blink 182 Tabs
Blink 182 Chords
Blink 182 Bass
Blink 182 Lyrics




Intro x2
G-7-7-7-70-0-0-0-0-0-0-0-5-5-5-5-5-5-5-5-2-2-2-2-5-5-5-5-7-7-7-7
D-5-5-5-5-0-0-0-0-0-0-0-0-3-3-3-3-3-3-3-3-0-0-0-0-3-3-3-3-5-5-5-5
A----------------------------------------------------------------
E----------------------------------------------------------------

Verse x2
G-0-0-0-0-0-0-0-0-5-5-5-5-5-5-5-5-2-2-2-2-2-2-2-2-5-5-5-5-5-5-5-5
D-0-0-0-0-0-0-0-0-3-3-3-3-3-3-3-3-0-0-0-0-0-0-0-0-3-3-3-3-3-3-3-3
A----------------------------------------------------------------
E----------------------------------------------------------------

Chorus x3
G-0-0-0-0-2-2-2-2-5-5-5-5-7-7-7-7---------------------------------
D-0-0-0-0-2-2-2-2-3-3-3-3-5-5-5-5---------------------------------
A-----------------------------------------------------------------
E-----------------------------------------------------------------

Chorus Part 2 x1
G-0-0-0-0-2-2-2-2-5-5-5-5-5-5-5-5---------------------------------
D-0-0-0-0-2-2-2-2-3-3-3-3-3-3-3-3---------------------------------
A-----------------------------------------------------------------
E-----------------------------------------------------------------

Repeat Intro x2
Repeat verse x2
Repeat Chorus and Chorus Part 2

Bass solo Played cool x8
G-0-0-0-0-7-7-7-7-5-5-5-5-5-5-5-5
D-0-0-0-0-5-5-5-5-3-3-3-3-3-3-3-3
A--------------------------------
E--------------------------------

Repeat Chorus and Chorus Part 2

End
G-0-0-0-0-0-0-0-0-5-5-5-5-5-5-5-5-2-2-2-2-2-2-2-2-5-5-5-5-S-0~--
D-0-0-0-0-0-0-0-0-3-3-3-3-3-3-3-3-0-0-0-0-0-0-0-0-3-3-3-3-T-0~--
A---------------------------------------------------------O-----
E---------------------------------------------------------P-----



Get this song at amazon.com      Ebay     Ringtones Ringtones  


Learn to play: Songwriting, Piano, Harmonica, Guitar
More Blink 182 lyrics available at Muzikum

Related Blink 182 Bass Tabs

What\'s My Age Again bass
Carousel Live bass
Anthem bass
The anthem pt2 bass
Penetrated bass
Another Girl Another Planet bass
Point Of View bass
After Midnight Live bass
What Went Wrong (tabbed For Bass) bass
Damnit W/intro bass
Don\'t Leave Me bass
Online Song bass
Im Sorry bass
13 Miles bass
Adams Song Live bass
Action bass
Zulu bass
Enthused bass
All Of This bass
My Pet Sally bass


Guitar Tabs









All tabs are property and copyright of their owners. All tabs provided for educational purposes only. Privacy Policy, DMCA