Blink 182

Don't Leave Me (live) Tabs



More from Blink 182

Blink 182 Tabs
Blink 182 Chords
Blink 182 Bass
Blink 182 Lyrics




INTRO
----------------------------------------------------
----------------------------------------------------
-------------xxxx-7-777----------------7-77-/-9-99--
-xxxx-7-777--xxxx-7-777--xxxx-9-999----7-77-/-9-99--
-xxxx-7-777--xxxx-5-777--xxxx-9-999----5-55-/-7-77--
-xxxx-5-555--------------xxxx-7-777-----------------

CHORUS
-----------------------------------------
-----------------------------------------
---------------777-999-------------------
-xxxx-777-999--777-999-------------------
-xxxx-777-999--555-777-------------------
-xxxx-555-777----------------------------

VERSE
----------
----------
----------
--7-------
----0-----
----------

OUTRO
---------
---------
---------
----7-~-- let it ring
----7-~--
----5-~--


ORDER

intro x2

bass-(no guitar)

chorus x4

intro x2

bass- (no guitar)

chorus x4

bass solo

verse thing x16

chorus x4

bass- (no guitar)

outro x1



Get this song at amazon.com      Ebay     Ringtones Ringtones  


Learn to play: Songwriting, Piano, Harmonica, Guitar
More Blink 182 lyrics available at Muzikum

Related Blink 182 Tabs

Always1 tabs
Point Of View tabs
Reebok Commercial tabs
Asthenia Intro tabs
Freak Scene tabs
Carousel Intro tabs
Going Away To College tabs
Go tabs
A New Hope Intro tabs
First Day tabs
Dead Mans Cure tabs
Dammit tabs
Dont Tell Me Its Over tabs
Adams Song Live4 tabs
Dammit Interlude tabs
Cereal tabs
Another Girl Another Planet tabs
Genie In A Bottle Live tabs
Grandpa Intro tabs
Dammit Solo tabs


Guitar Tabs









All tabs are property and copyright of their owners. All tabs provided for educational purposes only. Privacy Policy, DMCA