Blink 182

Dick Lips Tabs



More from Blink 182

Blink 182 Tabs
Blink 182 Chords
Blink 182 Bass
Blink 182 Lyrics

tabs-database.com[http://www.tabs-database.com.com/]
Chords A/c# D5 N.C.(A5) E5 plz rate



/-----------------------------------------------------------

/-----------------------------------------------------------

/-----------------------------------------------------------

/----------7-------7----------7-----------9-----------------

/----------4-------5----------0-----------7-----------------

/-----------------------------------------------------------



A D E F#m

/-----5-------------------------2---------------------------

/-----5--------7-------9--------2---------------------------

/-----6--------7-------9--------2---------------------------

/-----7--------7-------9--------4---------------------------

/-----7--------5-------7--------4---------------------------

/-----5-------------------------2---------------------------

Those are the Chords.





Intro 2x



/-----------------------------------------------------------

/-----------------------------------------------------------

/-----------------------------------------------------------

/--7-------7--------7--------9------------------------------

/--4 15x---5 15x----0 15x----7 15x--------------------------

/-----------------------------------------------------------





Verse

A

Please, mom, you ground me all the time i

D E

Know that i was right All along and I'm

A D

Hopin remeber I'm a kid I Know not what I did just

E

Just haveing fun





Pre Chorus

A/c# D5

You couldn't wait for something new and yester-

(A5) E5

Day i thought of you it left me to

A/c# D5

think as if i couldn't walk away it's to late

(A5) E5

i fell through-----





Chourus

F#m D A

Nothing to lose a boy who went out when he

E F#m

finished all his chores Nothing to dooooo

D A

They can't trust me because i

E

blew it once before





2x

/-----------------------------------------------------------

/-----------------------------------------------------------

/-----------------------------------------------------------

/--7-------7--------7--------9------------------------------

/--4 15x---5 15x----0 15x----7 15x--------------------------

/-----------------------------------------------------------





Verse 2



A

*** dad please don't kick my ass i

D E

i know i've seen you trashed at least one time can i

A

blame it on one of my dumb friends

D E

it's been a while sinnce i have used that line



Pre Chorus

A/c# D5

You couldn't wait for something new and yester-

(A5) E5

Day i thought of you it left me to

A/c# D5

think as if i couldn't walk away it's to late

(A5) E5

i fell through-----





Chourus

F#m D A

Nothing to lose a boy who went out when he

E F#m

finished all his chores Nothing to dooooo

D A

They can't trust me because i

E

blew it once before



2x

/-----------------------------------------------------------

/-----------------------------------------------------------

/-----------------------------------------------------------

/--7-7-7-7-7-7-7-7-7-7-7-7-7-7-7-7------9-------------------

/--4-4-4-4-4-4-4-4-5-5-5-5-5-5-5-5------7-16x---------------

/-----------------------------------------------------------





ALLRIGHT!!!!



/---5--5-5-5-5-5-5-5-5--------0-0-0-0-0---------------------

/---5--5-5-5-5-5-5-5-5--7--6--0-0-0-0-0---7-7-7-7-7-7-7-----

/---6--6-6-6-6-6-6-6-6--7--6--2-2-2-2-2---7-7-7-7-7-7-7-----

/---7--7-7-7-7-7-7-7-7--7--6--2-2-2-2-2---7-7-7-7-7-7-7-----

/---7--7-7-7-7-7-7-7-7--5--4--2-2-2-2-2---5-5-5-5-5-5-5-----

/---5--5-5-5-5-5-5-5-5--------0-0-0-0-0---------------------



Solo (very fast)

/-----------------------------------------------------------

/---------------------10------------------------------------

/---------------------x-------------------------------------

/---------------------7--64x--------------------------------

/-----------------------------------------------------------

/-----------------------------------------------------------





Chourus

F#m D A

Nothing to lose a boy who went out when he

E F#m

finished all his chores Nothing to dooooo

D A

They can't trust me because i

E

blew it once before
Added by tabs-database.com and our distinguished partners
Get this song at amazon.com      Ebay     Ringtones Ringtones  


Learn to play: Songwriting, Piano, Harmonica, Guitar
Also available at Muzikum: Blink 182 - Dick Lips lyrics

Related Blink 182 Tabs

Violence tabs
Dancing With Myself Intro tabs
Going Away To College (Live) tabs
Feelin This tabs
A Dog tabs
Shut Up tabs
Grandpa tabs
Please Take Me Home tabs
Pathetic tabs
Carousel Live tabs
All The Small Thong tabs
Strings tabs
Adams Song Live3 tabs
Girl Next Door, The tabs
Here\'s Your Letter tabs
Enthused tabs
Point Of View (Live) tabs
Dysentery Gary tabs
The Country Song Solo tabs
Everytime I Look For You tabs


Guitar Tabs









All tabs are property and copyright of their owners. All tabs provided for educational purposes only. Privacy Policy, DMCA