Blink 182

Dammit (live) At The Drive In Bass Tabs



More from Blink 182

Blink 182 Tabs
Blink 182 Chords
Blink 182 Bass
Blink 182 Lyrics




intro
e|--------------3-3-3-3-3-3-5-5-5-5-5-5-1-1-1-1-1-1---------
a|--3-3-3-3-3-3---------------------------------------------------
d|--------------------------------------------------------
g|-------------------------------------------------------------

verse (change with the guitar)
e|--------------3-3-3-3-3-3-5-5-5-5-5-5-1-1-1-1-1-1--------
a|--3-3-3-3-3-3-----------------------------------------
d|---------------------------------------------------------------
g|-----------------------------------------------------------

slow part
e|-----3---5---1--------------------------
a|-3------------------------------------------
d|--------------------------------------
g|---------------------------------------- x2

thats all!!! :)



Get this song at amazon.com      Ebay     Ringtones Ringtones  


Learn to play: Songwriting, Piano, Harmonica, Guitar
More Blink 182 lyrics available at Muzikum

Related Blink 182 Bass Tabs

Whats My Age Again.....correct bass
Going Away To College bass
Verse For Cacophony bass
Josie (with Lyrics) bass
Does My Breath Smell bass
Family Reunion bass
I Wont Be Home For Christmas bass
Feelin This bass
Cheshire Cat bass
Alone bass
Sex With His Sister bass
Dumpweed live bass
All The Small Things (beginners) bass
Anthem Part 2 (power Chord Style For People Who Get Bored) bass
D***it bass
Dumpweed bass
Let Her Go bass
A Letter To Elise bass
Fentoozler bass
Transvestite bass


Guitar Tabs









All tabs are property and copyright of their owners. All tabs provided for educational purposes only. Privacy Policy, DMCA