Blink 182

Dammit (live An Normal 100%) Tabs



More from Blink 182

Blink 182 Tabs
Blink 182 Chords
Blink 182 Bass
Blink 182 Lyrics



Artist: Blink 182
Song: Dammit (live an normal 100%)
Album: Dude Ranch the mark tom and travis show and the greatest hits
Guitarist: Tom Delonge
Tabber: punx_rock05


intro guitar 1
------------------------------------------
------------------------------------------
------------------------------------------x4
-----0-0-2-----0-0-2-----0-0-2-----222-0--
-3-3-----------------0-0------------------
-----------3-3-----------------1-1--------
intro guitar 2 comes in after 2 times with
------------------------------------------
------------------------------------------
-555555555-----------222222222------------x2
-555555555-555555555-222222222-333333333--
-333333333-555555555-000000000-333333333--
-----------333333333-----------111111111--


verse 1
part 1
--------------------------------------
--------------------------------------
-55555555----------22222222-----------x2
-55555555-55555555-22222222-33333333--
-33333333-55555555-00000000-33333333--
----------33333333----------11111111--
xxxxxxx xxxxxxx xxxxxxx xxxxxxx

part 2
-----------------------------------
-----------------------------------
-55555555----------22222222--------x2
-55555555-55555555-22222222-3-3-3--
-33333333-55555555-00000000-3-3-3--
----------33333333----------1-1-1--


intro guitar 1
------------------------------------------
------------------------------------------
------------------------------------------x2
-----0-0-2-----0-0-2-----0-0-2-----222-0--
-3-3-----------------0-0------------------
-----------3-3-----------------1-1--------
guitar 2
------------------------------------------
------------------------------------------
-555555555-----------222222222------------x2
-555555555-555555555-222222222-333333333--
-333333333-555555555-000000000-333333333--
-----------333333333-----------111111111--


verse 2
part 1
--------------------------------------
--------------------------------------
-55555555----------22222222-----------x2
-55555555-55555555-22222222-33333333--
-33333333-55555555-00000000-33333333--
----------33333333----------11111111--
xxxxxxx xxxxxxx xxxxxxx xxxxxxx

part 2
-----------------------------------
-----------------------------------
-55555555----------22222222--------x2
-55555555-55555555-22222222-3-3-3--
-33333333-55555555-00000000-3-3-3--
----------33333333----------1-1-1--


chorus
------------------------------------
------------------------------------
------------------------------------
-5555555555555555-------------------
-5555555555555555-5555555555555555--
-3333333333333333-5555555555555555--
------------------3333333333333333--

------------------------------------
------------------------------------
------------------------------------
-2222222222222222-------------------
-2222222222222222-3333333333333333--
-0000000000000000-3333333333333333--
------------------1111111111111111--
play whole thing x2


intro guitar 1
------------------------------------------
------------------------------------------
------------------------------------------x2
-----0-0-2-----0-0-2-----0-0-2-----222-0--
-3-3-----------------0-0------------------
-----------3-3-----------------1-1--------
guitar 2
------------------------------------------
------------------------------------------
-555555555-----------222222222------------x2
-555555555-555555555-222222222-333333333--
-333333333-555555555-000000000-333333333--
-----------333333333-----------111111111--


verse 3
part 1
--------------------------------------
--------------------------------------
-55555555----------22222222-----------x2
-55555555-55555555-22222222-33333333--
-33333333-55555555-00000000-33333333--
----------33333333----------11111111--
xxxxxxx xxxxxxx xxxxxxx xxxxxxx

part 2
-----------------------------------
-----------------------------------
-55555555----------22222222--------x2
-55555555-55555555-22222222-3-3-3--
-33333333-55555555-00000000-3-3-3--
----------33333333----------1-1-1--


chorus
------------------------------------
------------------------------------
------------------------------------
-5555555555555555-------------------
-5555555555555555-5555555555555555--
-3333333333333333-5555555555555555--
------------------3333333333333333--

------------------------------------
------------------------------------
------------------------------------
-2222222222222222-------------------
-2222222222222222-3333333333333333--
-0000000000000000-3333333333333333--
------------------1111111111111111--
play whole thing x2


solo
guitar 1
-----------------------0~-----
-5~----3~----5~-----3~----1~--
---5~----5~----5~-------------
-----5~----5~----5~-----------
------------------------------
------------------------------
guitar 2
------------------------------
------------------------------
------------------------------
-5~----7~----9~-----10~-------
-5~----7~----9~-----10~-------
-3~----5~----7~-----8~--------
------------------------------


outro guitar 1
------------------------------------------
------------------------------------------
------------------------------------------x4
-----0-0-2-----0-0-2-----0-0-2-----2-2-0--
-3-3-----------------0-0------------------
-----------3-3-----------------1-1--------
outro guitar 2
------------------------------------------
------------------------------------------
-555555555-----------222222222------------x4
-555555555-555555555-222222222-333333333--
-333333333-555555555-000000000-333333333--
-----------333333333-----------111111111--


thats it but in the live version he doesnt play the guitar 1 bit of the solo
an he alternates in the verses to this

----------------------------------------------
----------------------------------------------
-55555555-77777777-99999999-1010101010101010--
-55555555-77777777-99999999-1010101010101010--
-33333333-55555555-77777777-8-8-8-8-8-8-8-8---
----------------------------------------------
ow and they stop at the very end of first part (which is the F powewr chord -133--)
of the second verse

and thats it live and normal
have fun



Get this song at amazon.com      Ebay     Ringtones Ringtones  


Learn to play: Songwriting, Piano, Harmonica, Guitar
More Blink 182 lyrics available at Muzikum

Related Blink 182 Tabs

Peggy Sue tabs
Marlboro Man tabs
Dysentary Gary tabs
Alone tabs
Everytime I Look For You tabs
Dick Lips tabs
Down (live) tabs
All New Songs tabs
Anthem tabs
Adams Song Live3 tabs
Adams Song (guitar Tab) tabs
M+ms tabs
Strings tabs
I Know A Guy tabs
Anthem Pt. 2 tabs
Anthem Part Two tabs
Party Song tabs
Fucked Up My Life tabs
Don\'t Leave Me tabs
The Rock Show tabs


Guitar Tabs









All tabs are property and copyright of their owners. All tabs provided for educational purposes only. Privacy Policy, DMCA

Online converter - videoconverter.com