Blink 182

Dammit (intro) Tabs



More from Blink 182

Blink 182 Tabs
Blink 182 Chords
Blink 182 Bass
Blink 182 Lyrics



This is an easy intro:
Played with distortion.

|------------------|------------------|------------------|------------------=
|------------------|------------------|------------------|------------------=
|------------------|------------------|------------------|------------------=
|----------0--2----|----------0--2----|----------0--2----|----------2--0----=
|----3--3----------|------------------|----0--0----------|------------------=
|------------------|----3--3----------|------------------|----1--1----------=

|------------------|------------------|------------------|------------------=
|------------------|------------------|------------------|------------------=
|------------------|------------------|------------------|------------------=
|----------0--2----|----------0--2----|----------0--2----|----------2--0----=
|----3--3----------|------------------|----0--0----------|------------------=
|------------------|----3--3----------|------------------|----1--1----------=


That's it. Enjoy!


Get this song at amazon.com      Ebay     Ringtones Ringtones  


Learn to play: Songwriting, Piano, Harmonica, Guitar
Also available at Muzikum: Blink 182 - Dammit Intro lyrics

Related Blink 182 Tabs

Anthem Part Ii tabs
Anthem Part Two Live tabs
Sumo Song tabs
Marks Boyfriend tabs
Blink 182 Album tabs
The Longest Line tabs
Josie Live tabs
Shit Piss tabs
Down tabs
Adoms Song tabs
All The Small Things tabs
Mutt Live tabs
Peggy Sue tabs
The Party Song tabs
I'm Lost Without You(acoustic Chords) tabs
M&ms tabs
Dysentary Gary tabs
Always tabs
The Fallen Interlude tabs
Grandpa Intro tabs


Guitar Tabs









All tabs are property and copyright of their owners. All tabs provided for educational purposes only. Privacy Policy, DMCA