Blink 182

Dammit (fuckin' Perfect !) Tabs



More from Blink 182

Blink 182 Tabs
Blink 182 Chords
Blink 182 Bass
Blink 182 Lyrics



E|----------------------------------------------------------------------------|
B|----------------------------------------------------------------------------|
G|----------------------------------------------------------------------------|
D|-------0-0--2---------0-0--2------------0-0--2-------------3-3--2-----------| 4 X
A|-3-3-------------------------------0-0--------------------------------------|
E|-----------------3-3-----------------------------------1-1------------------|

E|---------------------|
B|---------------------|
G|-5-------------------|
D|-5----5----7----3----| use this patern 4 X
A|-3----5----7----3----|
E|------3----5----1----|

E|----------------------------------------------------------------------|
B|----------------------------------------------------------------------|
G|----------------------------------------------------------------------|
D|-------0-0--2---------0-0--2------------0-0--2-------------3-3--2-----| 2 X
A|-3-3-------------------------------0-0--------------------------------|
E|-----------------3-3-----------------------------------1-1------------|

E|---------------------|
B|---------------------|
G|-5-------------------|
D|-5----5----7----3----| use this patern 6 X
A|-3----5----7----3----|
E|------3----5----1----|

E|----------------------------------------------------------------------|
B|----------------------------------------------------------------------|
G|----------------------------------------------------------------------|
D|-------0-0--2---------0-0--2------------0-0--2-------------3-3--2-----| 2 X
A|-3-3-------------------------------0-0--------------------------------|
E|-----------------3-3-----------------------------------1-1------------|

E|---------------------|
B|---------------------|
G|-5-------------------|
D|-5----5----7----3----| use this patern 6 X
A|-3----5----7----3----|
E|------3----5----1----|


"Solo"

E|----------------------------------------------------------|
B|-5-------------5-------5-------------5-----------5--------|
G|----5------7------5------5-------7------5----7------5-----|
D|-------5--------------------5-----------------------------| 2 X
A|----------------------------------------------------------|
E|----------------------------------------------------------|



E|---------------------------------------------------------------------|
B|---------------------------------------------------------------------|
G|---------------------------------------------------------------------|
D|-------0-0--2---------0-0--2------------0-0--2-------------3-3--2----| 3 X
A|-3-3-------------------------------0-0-------------------------------|
E|-----------------3-3-----------------------------------1-1-----------|

E|------------------------------------------------------------------------|
B|------------------------------------------------------------------------|
G|----------------------------------------------------------------------5-|
D|-------0-0--2---------0-0--2------------0-0--2-------------3-3--2-----5-|
A|-3-3-------------------------------0-0--------------------------------3-|
E|-----------------3-3-----------------------------------1-1--------------|



Get this song at amazon.com      Ebay     Ringtones Ringtones  


Learn to play: Songwriting, Piano, Harmonica, Guitar
More Blink 182 lyrics available at Muzikum

Related Blink 182 Tabs

Violence tabs
A Letter To Elise tabs
Sometimes tabs
Dammit Interlude tabs
Anthem Pt. 2 tabs
Anthem tabs
A New Hope Intro tabs
Man Overboard(right) tabs
Dicklips (live) tabs
M&ms tabs
Going Away To College tabs
Track 15 tabs
Reebok Commercial tabs
Dancing With Myself Intro tabs
Apple Shampoo tabs
Dude Ranch (whole Album) tabs
Zulu tabs
Peggy Sue Live tabs
Dude Ranch Album tabs
The Album Tabs tabs


Guitar Tabs









All tabs are property and copyright of their owners. All tabs provided for educational purposes only. Privacy Policy, DMCA