Blink 182

Dammit (best You'll Find) Bass Tabs



More from Blink 182

Blink 182 Tabs
Blink 182 Chords
Blink 182 Bass
Blink 182 Lyrics




I was looking at this one guy's tab, and it was def. wrong, so i
corrected it, and here it is, I'm positive this is right.....


Intro: (optional, but correct)
G:------------------------------------------|
D:----------2---------2---------2-----2-2-0-|
A:--3-3-5-5-------5-5---0-0-5-5-------------| 2X
E:------------3-3------------------1-1------|

Verse:
G:-----------------------------------------------------------------|
D:-----------------------------------------------------------------|
A:-3-3-3-3-3-3-3-3-------------------------------------------------| 12X
E:-----------------3-3-3-3-3-3-3-3-5-5-5-5-5-5-5-5-1-1-1-1-1-1-1-1-|

Chorus:
G:-------------------------------------------------------------------------|
D:-------------------------------------------------------------------------|
A:-3-33-3-333-3-3-3--------------------------------------------------------| 2X
E:------------------3-33-3-333-3-3-3--5-55-5-555-5-5-5--1-11-1-111-1-1-1---|

**VERSE** 6X
**CHORUS** 2X

Bridge:
G:-------------------------------------------------------------------------|
D:-------------------------------------------------------------------------|
A:-3-4-5--5-6-7--7-7-8--8\-3-4-5--5-6-7--7-7-8-8-8-8-8-8-10-10-10-10-10-10-|
1X
E:-------------------------------------------------------------------------|

**VERSE** 4X

End On:
G:-----------|
D:-----------|
A:-----3-----| 1X
E:-----------|



Get this song at amazon.com      Ebay     Ringtones Ringtones  


Learn to play: Songwriting, Piano, Harmonica, Guitar
More Blink 182 lyrics available at Muzikum

Related Blink 182 Bass Tabs

Fentoozler bass
Carousel Buddha bass
M&m's bass
Boring bass
Anthem bass
Romeo & Rebecca bass
Point Of View bass
Snake Charmer bass
Pathetic Live bass
Rich Lips bass
Happy Holidays U B****** bass
The Whole 'blink 182' Album bass
Strings bass
Feelin This bass
Carousel (bridge) bass
Even If She Falls bass
Carousel Live bass
Mothers Day bass
Enthused (100% Perfect) bass
A Letter To Elise bass


Guitar Tabs









All tabs are property and copyright of their owners. All tabs provided for educational purposes only. Privacy Policy, DMCA

Online converter - videoconverter.com