Blink 182

Dammit Live (warped Tour) Bass Tabs



More from Blink 182

Blink 182 Tabs
Blink 182 Chords
Blink 182 Bass
Blink 182 Lyrics




intro: (if you get bored)

g-----------------------------
d----002----002----002----220-
a-33------------00------------
e--------33------------11-----

bass comes in at 0.15

g-------------------------------------
d----------------------------33333333-
a-33333333----------00000000---------- x2
e----------33333333-------------------

verse pt1: x2

g-------------------------
d-------------------------
a-33333-------00000-------
e-------33333-------11111-

verse pt2: (i know that your leaving...) x2

g-----------------------
d-----------------------
a-33333-------00000-----
e-------33333-------111-

pre-verse: x2

g-------------------------------------
d----------------------------33333333-
a-33333333----------00000000----------
e----------33333333-------------------

verse pt1: x1

g-------------------------|---------------------
d-------------------------|---------------------
a-33333-------00000-------|-33333-------00000---
e-------33333-------11111-|-------33333-------1-
|-play this the second time(when they stop and say: he f*****
her-|

verse pt2: (a day late...) x2

g-----------------------
d-----------------------
a-33333-------00000-----
e-------33333-------111-

interlude pt1: (its happened once again...) x1

g---------------------------------------------------
d----------------------------------3333333333333333-
a-3-3-333333------------0-0-000000------------------
e------------3-3-333333-----------------------------

interlude pt2: x1

g----------------------------------------------------
d----------------------------------33333333-55555555-
a-3-3-333333------------0-0-000000-------------------
e------------3-3-333333------------------------------

pre-verse: x2

g-------------------------------------
d----------------------------33333333-
a-33333333----------00000000----------
e----------33333333-------------------

verse pt1: x2

g-------------------------
d-------------------------
a-33333-------00000-------
e-------33333-------11111-

verse pt2: (and ill smile...) x2

g-----------------------
d-----------------------
a-33333-------00000-----
e-------33333-------111-

interlude pt1: (its happened once again...) x1

g---------------------------------------------------
d----------------------------------3333333333333333-
a-3-3-333333------------0-0-000000------------------
e------------3-3-333333-----------------------------

interlude pt2: x1

g----------------------------------------------------
d----------------------------------33333333-55555555-
a-3-3-333333------------0-0-000000-------------------
e------------3-3-333333------------------------------

bridge: x2

g------------
d------------
a-3~~5~~7~~8~
e------------

outro: x4

g-------------------------------------
d----------------------------33333333-
a-33333333----------00000000----------
e----------33333333-------------------

end on:

g---
d---
a-3~
e---


this song is basically the same live but there are just some octaves
in it...its easy to play

comments plz peace out



Get this song at amazon.com      Ebay     Ringtones Ringtones  


Learn to play: Songwriting, Piano, Harmonica, Guitar
More Blink 182 lyrics available at Muzikum

Related Blink 182 Bass Tabs

A New Hope bass
Chesire Cat bass
Family Next Door bass
I'm Lost Without You bass
Wirecked Him bass
Dont Leave Me bass
Family Reuinion bass
I Miss You Right Way bass
Enema bass
Shut Up bass
Don't Leave Me (power Chord Way If You Get Bored) bass
Anthem part 21 bass
Not Now bass
Lemmings bass
M And Ms bass
I Know A Guy bass
The Longest Line bass
Wasting Time bass
Degenerate bass
Happy Holidays You Bastard bass


Guitar Tabs









All tabs are property and copyright of their owners. All tabs provided for educational purposes only. Privacy Policy, DMCA