Blink 182

Country Song Tabs



More from Blink 182

Blink 182 Tabs
Blink 182 Chords
Blink 182 Bass
Blink 182 Lyrics



This Song is really fun to play and this tab is for the performance at sydney big day out
2000

Intro

E----------------------------------------------------------------------
B----11----1----11----1------11----1-----------------------------------
G----00----0----00----0------00----0-----------------------------------
D----22----2----22----2------22----2-----------------------------------
A--3----------3-----------3--------------3----0--2---------------------
E--------3----------3------------3----------3--------------------------

Verse

take off your pants dad....

E----------------------------------------------------------------------
B----------------------------------------------------------------------
G----------------------------------------------------------------------
D-----2-----2-------2----2----2----2-----------------------------------
A---3-------------3----------3----------3-----0---2--------------------
E---------3------------3---------3----------3--------------------------

Outro

E----------------------------------------------------------------------
B----------------------------------------------------------------------
G--3333333---55555-----------------------------------------------------
D--3333333---55555-----------------------------------------------------
A--1111111---33333---3~~~~~~~------------------------------------------
E----------------------------------------------------------------------



Get this song at amazon.com      Ebay     Ringtones Ringtones  


Learn to play: Songwriting, Piano, Harmonica, Guitar
Also available at Muzikum: Blink 182 - Country Song lyrics

Related Blink 182 Tabs

The Girl Next Door tabs
Dicklips (live) tabs
It's Obvious tabs
Go tabs
Untitled Live tabs
Macca Is Gay tabs
Dude Ranch Album tabs
Enema Of The State Album tabs
A New Hope Solo tabs
F A Dog tabs
Cacophony Intro tabs
Dammit Interlude tabs
Dude Ranch (whole Album) tabs
Growing Up tabs
Asthenia-live tabs
Palmadillo tabs
Alians Exist tabs
Big Day Out tabs
Violence (live) tabs
Blink 182 tabs


Guitar Tabs









All tabs are property and copyright of their owners. All tabs provided for educational purposes only. Privacy Policy, DMCA