Blink 182

Chesire Cat Bass Tabs



More from Blink 182

Blink 182 Tabs
Blink 182 Chords
Blink 182 Bass
Blink 182 Lyrics



Artist: Blink 182
Album: Chesire Cat
Song: Carousel
Tabbed by: Mike Richards (PunkdMike09@aol.com)

This is one of my all time favorite Blink 182 songs. I just completely love this
song. I'm sure this is 99.9% correct.

5(8)=How many times to play the fret.
|x2|=How many times to play the section.

INTRO PART 1 (repeat twice)
G-14-14-14--12-12-12--11-11|x2|-12-12-12-11-11-11-9-9|x6|
D--------------------------| |----------------------| |
A--------------------------| |----------------------| |
E--------------------------| |----------------------| |

INTRO PART 2
G----11-11-12-14-12-11-------------------------|
D-12-------------------12----11-11-12-14-12-11-|
A-------------------------12-------------------|
E----------------------------------------------|

G-------------------------------------------------|
D-------14-14-16-17-16-14-------12-------12----12-|
A-12-14-------------------10-10----10-10----10----|
E-------------------------------------------------|

G----11-11-12-14-12-11-------------------------|
D-12-------------------12----11-11-12-14-12-11-|
A-------------------------12-------------------|
E----------------------------------------------|

G--------------------------------------------------|
D-------14-14-16-17-16-14--12-12-12-12-12-12-12-12-|
A-12-14--------------------10-10-10-10-10-10-10-10-|
E--------------------------------------------------|

Then you play these chords:
G-11--9--11--7-|
D--0--7---9--5-|
A--------------|
E--------------|
There's a rythem when playing the chords, but I don't really have to type them.

INTRO PART 3
G--------------------|x2|-11--9--11--7-| Play the same rythem that
D--------------------| |--0--7---9--5-| you played before
A-5(8)---------------| |--------------|
E-----5(8)-7(8)-3(8)-| |--------------|

G--------------------------------------|x2|
D--------------------------------------| |
A-5(8)-----------10-10-12-12-10-10-7-7-| |
E------5(8)-7(8)-----------------------| |

VERSE x4
G--------------------------------------|
D--------------------------------------|
A-5(8)-----------10-10-12-12-10-10-7-7-|
E------5(8)-7(8)-----------------------|

CHORUS
G----------------------------------------|x3|--------------------|
D----------------------------------------| |--------------------|
A-5(8)-7(8)-12(8)--10-10-12-12-10-10-7-7-| |-5(8)-7(8)-12-10(8)-|
E----------------------------------------| |--------------------|

PRE-VERSE
G--------------------------------------|
D--------------------------------------|
A-5(8)-----------10-10-12-12-10-10-7-7-|
E------5(8)-7(8)-----------------------|

VERSE x2

BRIDGE
G-11--9--11--7-| Play the same rythem
D--0--7---9--5-| that you did before
A--------------|
E--------------|

G---------------------------------------------|
D---------------------------------------------|
A-5----------5----------10-10-12-12-10-10-7-7-|
E---5--7--3-----5--7(8)-----------------------|

G--------------------------------------|
D--------------------------------------|
A-5(8)-----------10-10-12-12-10-10-7-7-|
E------5(8)-7(8)-----------------------|

CHORUS
G----------------------------------------|x3|--------------------|
D----------------------------------------| |--------------------|
A-5(8)-7(8)-12(8)--10-10-12-12-10-10-7-7-| |-5(8)-7(8)-12-10(8)-|
E----------------------------------------| |--------------------|

That's the whole song! Now go play it...and if your already playing it...get better at it!

Taken from the BassMasta ~ http://www.tabs-database.com



Get this song at amazon.com      Ebay     Ringtones Ringtones  


Learn to play: Songwriting, Piano, Harmonica, Guitar
More Blink 182 lyrics available at Muzikum

Related Blink 182 Bass Tabs

Action(feeling This) bass
Dammit bass
Transvestite bass
Family Reunion (clean:p) bass
A New Hope Solo bass
The Grandpa Song bass
Pathetic bass
Im Sorry bass
Mark Tom And Travis Show bass
Pathetic Live bass
Natives bass
Dammit Live (warped Tour) bass
Another Girl Another Planet bass
Voyeur bass
T V bass
Untitled bass
The Girl Next Door bass
The Country Song (my Other One Disapeared) bass
Wendy Clear bass
Dancing With Myself bass


Guitar Tabs









All tabs are property and copyright of their owners. All tabs provided for educational purposes only. Privacy Policy, DMCA

Online converter - videoconverter.com