Blink 182

Cheshire Cat Bass Tabs



More from Blink 182

Blink 182 Tabs
Blink 182 Chords
Blink 182 Bass
Blink 182 Lyrics



Intro (x2)
G|-14-14-14--12-12-12--11-11-| |-6-6-6--7-7-7--9-9-|
D|-0--0--0---0--0--0---0--0--| |-7-7-7--7-7-7--7-7-|
A|---------------------------| x2 |-------------------| x3
E|---------------------------| |-------------------|

G|-12-12-12--11-11-11--9-9---12-12-12--11-11-11--9-11--77777777-|
D|-9--9--9---9--9--9---9-9---9--9--9---9--9--9---9-9---55555555-|
A|--------------------------------------------------------------|
E|--------------------------------------------------------------|

Solo
G|--11-11-12-14-12-11-----6-6-7-9-7-6-----9-9-11-12-11-9-11-----7-----7---7-|
D|-0-----------------127-------------7/9-------------------5-5---5-5---5---|
A|--------------------------------------------------------------------------|
E|--------------------------------------------------------------------------|

G|---11-11-12-14-12-11-----6-6-7-9-7-6-----9-9-11-12-11-9-11----777777-|
D|--0-----------------127-------------7/9--------------------555555---|
A|---------------------------------------------------------------------|
E|---------------------------------------------------------------------|

G|11111111--9-9-9-9--11111111-7-7-7-7-|
D|0-0-0-0---7-7-7-7--9-9-9-9--5-5-5-5-|
A|------------------------------------| x4
E|-----------------------------------

parte de guitarra (guitar part)
G|11111111--9-9-9-9--11111111-7-7-7-7-|
D|0-0-0-0---7-7-7-7--9-9-9-9--5-5-5-5-|
A|------------------------------------| x2
E|------------------------------------|

Pre Verse
G|------------------------------|
D|------------------------------|
A|-555555-000000-222222---------|
E|----------------------333333--|

Verse
G|--------------------------------------|
D|--------------------------------------|
A|-55555555-00000000-22222222-----------| x2
E|-----------------------------33333333-|

Chorus %%= Pause "just another"
G|---------------------------------------------------------------{%%}---------|
D|---------------------------------------------------------------{%%}---------|
A|-55555555-77777777-------------------55555555-77777777---------{%%}---------|
E|-------------------55555555-33333333-------------------55555555{%%}33333333-|

Guitar Part

Bridge
G|-------------|-----------------|
D|-------------|-----------------|
A|-5~-0~-2~----|-5~-0~-2222------|
E|----------3~-|------------3333-|

Verse

Chorus
Intro (x2)
G|-14-14-14--12-12-12--11-11-| |-6-6-6--7-7-7--9-9-|
D|-0--0--0---0--0--0---0--0--| |-7-7-7--7-7-7--7-7-|
A|---------------------------| x2 |-------------------| x2
E|---------------------------| |-------------------|

G|-12-12-12--11-11-11--9-9---12-12-12--11-11-11--9-11--77777777-|
D|-9--9--9---9--9--9---9-9---9--9--9---9--9--9---9-9---55555555-|
A|--------------------------------------------------------------|
E|--------------------------------------------------------------|

Solo
G|--11-11-12-14-12-11-----6-6-7-9-7-6-----9-9-11-12-11-9-11-----7-----7---7-|
D|-0-----------------127-------------7/9-------------------5-5---5-5---5---|
A|--------------------------------------------------------------------------|
E|--------------------------------------------------------------------------|

G|---11-11-12-14-12-11-----6-6-7-9-7-6-----9-9-11-12-11-9-11----777777-|
D|--0-----------------127-------------7/9--------------------55555555-|
A|---------------------------------------------------------------------|
E|---------------------------------------------------------------------|

G|11111111--9-9-9-9--11111111-7-7-7-7-|
D|0-0-0-0---7-7-7-7--9-9-9-9--5-5-5-5-|
A|------------------------------------| x4
E|------------------------------------|

Guitar Part

G|11111111--9-9-9-9--11111111-7-7-7-7-|
D|0-0-0-0---7-7-7-7--9-9-9-9--5-5-5-5-|
A|------------------------------------| x2
E|------------------------------------|

Pre Verse
G|------------------------------|
D|------------------------------|
A|-555555-000000-222222---------|
E|----------------------333333--|

Verse
G|--------------------------------------|
D|--------------------------------------|
A|-55555555-00000000-22222222-----------| x2
E|-----------------------------33333333-|

Chorus %%= Pause "just another"
G|---------------------------------------------------------------{%%}---------|
D|---------------------------------------------------------------{%%}---------|
A|-55555555-77777777-------------------55555555-77777777---------{%%}---------|
E|-------------------55555555-33333333-------------------55555555{%%}33333333-|

Guitar Part


Bridge
G|-------------|-----------------|
D|-------------|-----------------|
A|-5~-0~-2~----|-5~-0~-2222------|
E|----------3~-|------------3333-|

Verse
G|--------------------------------------|
D|--------------------------------------|
A|-55555555-00000000-22222222-----------| x2
E|-----------------------------33333333-|


Chorus %%= Pause "just another"
G|---------------------------------------------------------------{__}---------|
D|---------------------------------------------------------------{__}---------|
A|-55555555-77777777-------------------55555555-77777777---------{__}---------|
E|-------------------55555555-33333333-------------------55555555{__}33333333-|

Taken from The BassMasta -- http://www.tabs-database.com



Get this song at amazon.com      Ebay     Ringtones Ringtones  


Learn to play: Songwriting, Piano, Harmonica, Guitar
More Blink 182 lyrics available at Muzikum

Related Blink 182 Bass Tabs

Heart\'s All Gone bass
Asthenia bass
Dysentary Gary bass
Reebok Commercial bass
Dont Leave Me bass
First Date bass
Wasting Time bass
Enema bass
Point Of View bass
I Know A Guy bass
Blowjob Song bass
Touchdown Boy bass
Transvestite bass
Josie bass
Shut Up bass
The Country Song (my Other One Disapeared) bass
Stay Together 4 The Kids bass
Mutt bass
Tv bass
G O bass


Guitar Tabs









All tabs are property and copyright of their owners. All tabs provided for educational purposes only. Privacy Policy, DMCA