Blink 182

Cereal Tabs



More from Blink 182

Blink 182 Tabs
Blink 182 Chords
Blink 182 Bass
Blink 182 Lyrics

-------------------------------------------------------------------------------
                         CEREAL - MxPx, NOFX, Blink-182
-------------------------------------------------------------------------------

By: Rodrigo(BRAZIL)

-> Palm Mute
*-> Let Ring

#INTRO#
E|-------------------------------------------------------------------|   |------|   |-----------|   |------|
B|-------------------------------------------------------------------|   |------|   |-----------|   |------|
G|------7-7-6-6-7-7-----7-7-6-6-7-7-----7-7-6-6-7-7-----7-7-6-6-7-7--|   |--7---|   |--7--------|   |--7---|
D|------------------5-5-------------7-7-------------5-5--------------|x2 |--7*--|   |--7--4--5--|x2 |--7*--|
A|--5-5--------------------------------------------------------------|   |--5---|   |--5--4--5--|   |--5---|
E|-------------------------------------------------------------------|   |------|   |-----2--3--|   |------|

#VERSE#
E|---------| |---------|
B|---------| |---------|
G|--7---7--| |------7--|
D|----7----| |---------|x16
A|---------| |--5-5----|
E|---------| |---------|
                      
#BRIDGE#
E|-----------|
B|-----------|
G|--7--------|
D|--7--4--5--|x2
A|--5--4--5--|
E|-----2--3--|

#REPEAT VERSE#

#CHORUS#
E|--------------|   |-----------|
B|--------------|   |-----------|
G|--7-----------|   |--7---6-7--|
D|--7--4--5--7--|x2 |----7------|
A|--5--4--5--7--|   |-----------|
E|-----2--3--5--|   |-----------|

#REPEAT BRIDGEN, VERSE AND CHORUS#

#OTHER#
E|------------------------------------------------------|   |---------------|
B|------------------------------------------------------|   |---------------|
G|--7---7---7-------------------------------------------|   |--7---7---7----|
D|--7-7---7---7--4---4---4----5---5---5----7---7---7----|x2 |----7---7---7--|
A|--5------------4-4---4---4--5-5---5---5--7-7---7---7--|   |---------------|
E|---------------2------------3------------5------------|   |---------------|

#REPEAT CHORUS,BRIDGE x2#

-------------------------------------------------------------------------------
Get this song at amazon.com      Ebay     Ringtones Ringtones  


Learn to play: Songwriting, Piano, Harmonica, Guitar
More Blink 182 lyrics available at Muzikum

Related Blink 182 Tabs

Hollywood tabs
I Miss You Live tabs
Chesire Cat Full Album - Guitar Tab tabs
M&ms tabs
Big Day Out tabs
Lemmings tabs
Emo tabs
Easy Target tabs
Mutt Live tabs
Fucked Up My Life tabs
Depends tabs
Tv tabs
Jono tabs
The Family Next Door tabs
Angellica & Me tabs
Pathetic Live tabs
Dysentary Gary tabs
Party Song tabs
Secret Track tabs
Grandpa Intro tabs


Guitar Tabs









All tabs are property and copyright of their owners. All tabs provided for educational purposes only. Privacy Policy, DMCA