Blink 182

Carousel Tabs



More from Blink 182

Blink 182 Tabs
Blink 182 Chords
Blink 182 Bass
Blink 182 Lyrics

tabs-database.com[http://www.tabs-database.com.com/]
Artist: Blink 182

Album: Chehire Cat

Song: Carousel

Tabber: timeless220



This is a good song by blink 182.





E---------------------------------------------------------

B---------------------------------------------------------

G---777777------------------------------------------------X4

D---777777----777777----999999-----555555-----------------

A---555555----777777----999999-----555555-----------------

E-------------555555----777777-----333333-----------------







E-----------------------------------------------------------

B-----------------------------------------------------------

G------7777-------------------------------------------------X2

D------7777----7777----9999----5555-------------------------

A------5555----7777----9999----5555-------------------------

E--------------5555----7777----3333-------------------------





Riff 1

E---------------------------------------------------------

B---------------------------------------------------------

G---------------------------------------------------------

D---------------------------------------------------------

A--4h5--4h555555-7-5 44h5-44-5554-5-7--5-4----------------

E---------------------------------------------------------



End riff 1

E-----------------------------------------------------------------------------------

B-----------------------------------------------------------------------------------

G-----------------------------------------------------------------------------------

D--4-444h5-2---4-444h5-77-5-4-2----4-444h5-2----0-54h5-55-420-----------------------

A-----------------------------------------------------------------------------------

E-----------------------------------------------------------------------------------









Verse

E-------------------------------------------------------

B-------------------------------------------------------

G--777777-----------------------------------------------X4

D--777777-----777777----999999----555555----------------

A--555555-----777777----999999----555555----------------

E-------------555555----777777----333333----------------



Chorus

E-------------------------------------------------------

B-------------------------------------------------------

G--777777-----999999------------------------------------X4

D--777777-----999999----777777----555555----------------

A--555555-----777777----777777----555555----------------

E-----------------------555555----333333----------------





Riff 2

E-----------------------------------------------------------------------------------

B-----------------------------------------------------------------------------------

G-----------------------------------------------------------------------------------

D--4-444h5-2---4-444h5-77-5-4-2----4-444h5-2----0-54h5-55-420-----------------------

A-----------------------------------------------------------------------------------

E-----------------------------------------------------------------------------------





Verse

E------------------------------------------------------

B------------------------------------------------------

G--777777----------------------------------------------X2

D--777777-----777777----999999----555555---------------

A--555555-----777777----999999----555555---------------

E-------------555555----777777----333333---------------



Pre solo

E-------------------

B-------------------

G---7---------------

D---7---------------

A---5---------------

E-------------------

Let ring









Solo

E----------------------------------------------------------------------------------------

B----------------------------------------------------------------------------------------

G----------------------------------------------------------------------------------------X4

D-------4-5-7-5-4------------------------------------------------------------------------

A-----5---------------------4-5-7-5-4--------7-9-10-9-7--------2-3-5-3-2-----------------

E-------------------------5-----------------7----------------3---------------------------







Chorus

E-------------------------------------------------------

B-------------------------------------------------------

G--777777-----999999------------------------------------X4

D--777777-----999999----777777----555555----------------

A--555555-----777777----777777----555555----------------

E-----------------------555555----333333----------------





Ending

E-------------------

B-------------------

G---7---------------

D---7---------------

A---5---------------

E-------------------

Let it ring out
Added by tabs-database.com and our distinguished partners
Get this song at amazon.com      Ebay     Ringtones Ringtones  


Learn to play: Songwriting, Piano, Harmonica, Guitar
Also available at Muzikum: Blink 182 - Carousel lyrics

Related Blink 182 Tabs

Waggy tabs
Pathetic tabs
A New Hope tabs
Carousel Live tabs
Adams Song Interlude tabs
Dead Mans Cure tabs
Anthem Pt. 2 tabs
Carousel tabs
Dammit (live An Normal 100%) tabs
M&ms tabs
Seasons In The Sun tabs
Dammit tabs
Untitled Live tabs
Sex With His Sister tabs
Dysentery Gary Intro tabs
Hold On tabs
Asthenia Intro tabs
Dancing With Myself Intro tabs
Red Skies tabs
Give Me One Good Reason tabs


Guitar Tabs









All tabs are property and copyright of their owners. All tabs provided for educational purposes only. Privacy Policy, DMCA