Blink 182

Carousel Bass Tabs



More from Blink 182

Blink 182 Tabs
Blink 182 Chords
Blink 182 Bass
Blink 182 Lyrics

From: Doginabox@aol.com
Date: Fri, 4 Jan 2002 02:58:03 EST
Subject: b/blink_182/carousel.btab

Artist: Blink 182
Song: Carousel
Album: Buddha (demo) 1994/Cheshire Cat 1995/Mark, Tom, and Travis Show (live) 
2001
Tuning: Standard


>>LISTEN TO SONG FOR TIMING<<


Intro (x2)


------------------------------------------------------------------------
------------------------------------------------------------------------
--5-5-5-5-5-5-5-5--5-5-5-5-5-5-5-5--------------------------------------
------------------------------------5-5-5-5-5-5-5-5--5-5-5-5-5-5-5-5----


-------------------------------------------------------------------------
-------------------------------------------------------------------------
-------------------------------------------------------------------------
--7-7-7-7-7-7-7-7--7-7-7-7-7-7-7-7--3-3-3-3-3-3-3-3--3-3-3-3-3-3-3-3-----


Intro Part 2 (:28)


-----11-11-12-14-12-11-----------------------------------------------------
--12-------------------12----11-11-12-14-12-11--------14-14-16-17-16-14-16-
--------------------------12-------------------12--14----------------------
---------------------------------------------------------------------------


---------------------------------------------------------------------------
--------12-------12----12------11-12-14-12-11--------11-11-12-14-12-11-----
--10-10----10-10----10------12----------------12--12-------------------12--
---------------------------------------------------------------------------


---------------------------------------------------------------------------
-----14-14-16-17-17-16-16--12-12-12-12-12-12-12-12-------------------------
--14-----------------------10-10-10-10-10-10-10-10-------------------------
---------------------------------------------------------------------------


Intro Part 3 (:42)


                         There are four bars to this part. For the first two,
                          / play these chords.
                         /
                        /
  
     D5    A5   B5   G5                D5   E5   F#   E5
-----11----9----11---7---           ---7----9----11---9------
-----12----7----9----5---           ---0----0----0----0------
--------------------------          -------------------------
--------------------------          -------------------------
                                   /
                                  /
                                 / 
             For the third one, replace the notes with 
                      these chords. And for the last bar, use the 
                      the same chords you did for the first two.










Pre-verse 1


--11-11-11-11-11-11--9-9-9-9-9-9--11-11-11-11-11-11--7-7-7-7-7-7--
------------------------------------------------------------------
------------------------------------------------------------------
------------------------------------------------------------------



Pre-verse 2/Verse/Chorus riff


------------------------------------------------------
------------------------------------------------------
--5-5-5-5-5-5-----------------------------------------
---------------5-5-5-5-5-5--7-7-7-7-7-7--3-3-3-3-3-3--



Solo


------------------------------------------------
------------------------------------------------
---5--------------------------------------------
-----------------5-------------7-------------3--



Song Order:

Intro
Intro Part 2
Intro Part 3
Pre-verse 1
Pre-verse 2
Verse
Chorus
Pre-verse 2
Verse
Intro part 3
Solo
Chorus
Get this song at amazon.com      Ebay     Ringtones Ringtones  


Learn to play: Songwriting, Piano, Harmonica, Guitar
Also available at Muzikum: Blink 182 - Carousel lyrics

Related Blink 182 Bass Tabs

I Miss You bass
The Fallen Interlude bass
My Pet Sally bass
First Date (live) bass
Carousel Buddha bass
Adam\'s Song bass
Go bass
Rich Lips bass
After Midnight Live bass
The Rockshow bass
This Song That Sucks bass
Here\'s Your Letter bass
Josie! 100% Correct bass
Zulu bass
The Party Song bass
Always Intro/ Main Riff bass
Kaleidoscope bass
Point Of View bass
Asthenia bass
Cacophony bass


Guitar Tabs









All tabs are property and copyright of their owners. All tabs provided for educational purposes only. Privacy Policy, DMCA

Online converter - videoconverter.com